Oops, an error
Loading. Please wait.

Un Cielo Gris Tab

24 views 1 this week
no commentswrite comment
1 2 3 4 5
3 more votes to show rating
add to favorites
launch autoscroll
font size
0
reset
how to read this tab
guitar tuner
×
Best way to learn
"Un Cielo Gris"
Autoscroll
slow
fast
+/-
esc
set tempo
stop
Cejilla en el 1

Para que os salga bien escuchar la canción antes.

Os aconsejo tocar las estrofas co el Riff 1 dos veces,
excepto la tercera estrofa que es vocal añadiéndole
solo los dos riffs finales.

Los coros salen mejor a dos guitarras:
Mientras que uno toca los acordes el otro hace el Riff 1.

En vez de hacer os riffs se puede seguir la ueda de acordes: Sol-Do-Lam-Re

Riff 1
|---------------||---------------||---------------||----------------|
|------------0--||------1---0----|-----------0-1--||------1---0-----|
|------0---2----||----0-------2--||------2--------||----2-------2h0-|
|----0----------||---------------||----2----------||--0-----0-------|
|---------------||--3-----3------||--0-----0------||----------------|
|--3-----3------||---------------||---------------||----------------|


[ESTROFA 1]
Ya son las diez en mi reloj,
y aún sigo aquí, rogando a Dios
que el corazón no se me parta en dos
si tú te vas.

[CORO]

SOL     DO           LAm            RE
Mi soledad quiere viajar dentro de ti.
SOL         DO          LAm            RE            SOL-DO-LAm-RE *2
Si no hay razón para llorar, no quiero ver un cielo gris.

[ESTROFA 2]

Con la ilusión de un aprendiz,
te juro amor hasta morir,
siento algo más que una simple amistad,
debilidad.

[CORO]

SOL     DO           LAm            RE
Mi soledad quiere viajar dentro de ti.
SOL         DO          LAm            RE            SOL-DO-LAm-RE *2
Si no hay razón para llorar, no quiero ver un cielo gris.

[Riff 2]                        Rápido*
|--------3h2--||-3--3/5--5/7-||--0h5p3--3---||-3h0---------||--------|
|-------------||-------------||-------------||-----1-0h1---||--------|
|-------------||-------------||-------------||-----------2-||---2----|
|-------------||-------------||-------------||-------------||-4---0--|
|-------------||-------------||-------------||-------------||--------|
|-------------||-------------||-------------||-------------||--------|

*Pulsad la primera cuerda y rápidamente poned el 5 y soltad hacia 3 para
que también suene.

[ESTROFA 3] - NO tocar Riff1 solo los que están abajo de cada estrofa

Abrázame, dame calor,
quiero sentir tu corazón.
[Riff 3]
|------------3----||----5-5-3-2-3----|
|--------0-1------||-----------------|
|----2-2----------||-----------------|
|-----------------||-----------------|
|-----------------||-----------------|
|-----------------||-----------------|

Que aunque este amor hoy se niegue a crecer,
sabré esperar.
[Riff 4]
|-----------------|
|-----------------|
|----0h2-0---0----|
|----------4------|
|-----------------|
|-----------------|

[CORO]

SOL     DO           LAm            RE
Mi soledad quiere viajar dentro de ti.
SOL         DO          LAm            RE            SOL-DO-LAm-RE 3
Si no hay razón para llorar, no quiero ver un cielo gris.

Seguir repitiendo la rueda: Sol-Do-Lam-Re

Eric Lagarda

Espero que os guste, comentarios sugerencias o correcciones a
info@
Suggest correction
Give kudos to tab author, rate the tab!
1 2 3 4 5
comments
print report bad tab
guest
You may want to rate the tab now too:
select rating
Wanna post a correction for this tab? Suggest correction