Oops, an error
Loading. Please wait.

I Like To Dance Tab

1 view 1 this week
no commentswrite comment
1 2 3 4 5
3 more votes to show rating
add to favorites
launch autoscroll
font size
0
reset
how to read this tab
guitar tuner
Autoscroll
slow
fast
+/-
esc
set tempo
stop
Help us to improve Ultimate-Guitar.com Take our survey!
×
Author
[Intro]
e|----------------------------------------------|
B|----------------------------------------------|
G|-----------7-8-6-6-6--------------------------|
D|-5-5-5-5-5-----------5-6-7-8-6-7-5------------|
A|----------------------------------------------|
E|----------------------------------------0-3---|

[Verse]
I like to dance and i like to prance around
e|-0-0-0-0-0-0-0-0-0-0-0-0-0-0-0-0-0-0-0-0-0-0-0-0-|
B|-5-5-5-5-4-4-4-4-6-6-6-6-5-5-5-5-4-4-4-4-6-6-6-6-|
G|-------------------------------------------------|
D|-------------------------------------------------|
A|-------------------------------------------------|
E|-------------------------------------------------|

I like dance outside alnight on the cold winter ground
e|-0-0-0-0-0-0-0-0-0-0-0-0-0-0-0-0-0-0-0-0-0-0-0-0----|
B|-5-5-5-5-4-4-4-4-6-6-6-6-5-5-5-5-4-4-4-4-6-6-6-6----|
G|----------------------------------------------------|
D|----------------------------------------------------|
A|----------------------------------------------------|
E|----------------------------------------------------|

I go home in the evening then my bones start freezing
e|-0-0-0-0-0-0-0-0-0-0-0-0-0-0-0-0-0-0-0-0-0-0-0-0-----|
B|-5-5-5-5-4-4-4-4-6-6-6-6-5-5-5-5-4-4-4-4-6-6-6-6-----|
G|-----------------------------------------------------|
D|-----------------------------------------------------|
A|-----------------------------------------------------|
E|-----------------------------------------------------|

[Chorus]
 Would you like to dance with me under the disco ball light?
e|-0-0-0-0-0--0--0--0--0-0-0-0-0-0-0--0--0--0--0-0----------|
B|-9-9-9-9-10-10-10-10-8-8-9-9-9-9-10-10-10-10-8-8----------|
G|-0-0-0-0-0--0--0--0--0-0-0-0-0-0-0--0--0--0--0-0----------|
D|----------------------------------------------------------|
A|----------------------------------------------------------|
E|----------------------------------------------------------|

And baby, well we can party all through the night
e|-0-0-0-0-0--0--0--0--0-0-0-0-0-0-0--0--0--0--0-0----------|
B|-9-9-9-9-10-10-10-10-8-8-9-9-9-9-10-10-10-10-8-8----------|
G|-0-0-0-0-0--0--0--0--0-0-0-0-0-0-0--0--0--0--0-0----------|
D|----------------------------------------------------------|
A|----------------------------------------------------------|
E|----------------------------------------------------------|

[Verse]
I've gone to dance in every single nightclub in town
e|-0-0-0-0-0-0-0-0-0-0-0-0-0-0-0-0-0-0-0-0-0-0-0-0------------------------------------------------|
B|-5-5-5-5-4-4-4-4-6-6-6-6-5-5-5-5-4-4-4-4-6-6-6-6------------------------------------------------|
G|------------------------------------------------------------------------------------------------|
D|------------------------------------------------------------------------------------------------|
A|------------------------------------------------------------------------------------------------|
E|------------------------------------------------------------------------------------------------|

[Verse]
I get up on stage and i dance for the entire crowd
e|-0-0-0-0-0-0-0-0-0-0-0-0-0-0-0-0-0-0-0-0-0-0-0-0---------------------------------------------------|
B|-5-5-5-5-4-4-4-4-6-6-6-6-5-5-5-5-4-4-4-4-6-6-6-6---------------------------------------------------|
G|---------------------------------------------------------------------------------------------------|
D|---------------------------------------------------------------------------------------------------|
A|---------------------------------------------------------------------------------------------------|
E|---------------------------------------------------------------------------------------------------|

[Verse]
I do my very best but no matter how hard i try, the results a frown ohh
e|-0-0-0-0-0-0-0-0-0-0-0-0-0-0-0-0-0-0-0-0-0-0-0-0---------------------------------------------------|
B|-5-5-5-5-4-4-4-4-6-6-6-6-5-5-5-5-4-4-4-4-6-6-6-6---------------------------------------------------|
G|---------------------------------------------------------------------------------------------------|
D|---------------------------------------------------------------------------------------------------|
A|---------------------------------------------------------------------------------------------------|
E|---------------------------------------------------------------------------------------------------|

[Solo]
e|----------------------------------------------------------------------------------------------------|
B|---------------------4-4-4-5-4-----4----------------------------------------------------------------|
G|-3-3-3-3-3-3-5-5-5-5-6-4-3-5-6-3-3---4-4-4-6-3-4\8-8-8-10-11-10-9-8-12-12-10-9-11-12-10-13-13-13-11-|
D|-3-3-3-3-3-3-5-5-5-5-5-5-4-6-5----------------------------------------------------------------------|
A|---------------------5-6-3-5-4----------------------------------------------------------------------|
E|----------------------------------------------------------------------------------------------------|

e|---------------------------------------------------------------------15-16-14-17-18-15-15-16-14-16-15-|
B|------------------------------------------------------------------------------------------------------|
G|-12-12-11-10-12-11-12-10-11-12-12-10-11-12-12-12-11-10-10-11-11-11------------------------------------|
D|------------------------------------------------------------------------------------------------------|
A|------------------------------------------------------------------------------------------------------|
E|------------------------------------------------------------------------------------------------------|

[Outro]
e|------------------------------------------------|
B|------------------------------------------------|
G|-----------7-8-6-6-6----------------------------|
D|-5-5-5-5-5-----------5-6-7-8-6-7-5--------------|
A|------------------------------------------------|
E|----------------------------------------0-3-3---|


************************************

| \  Slide down

************************************
Suggest correction
Give kudos to tab author, rate the tab!
1 2 3 4 5
comments
print report bad tab
guest
You may want to rate the tab now too:
select rating
Wanna post a correction for this tab? Suggest correction