Oops, an error
Loading. Please wait.

No Tingues Por Tab

38 views 1 this week
no commentswrite comment
1 2 3 4 5
3 more votes to show rating
add to favorites
launch autoscroll
font size
0
reset
how to read this tab
guitar tuner
×
Best way to learn
"No Tingues Por"
Autoscroll
slow
fast
+/-
esc
set tempo
stop
Bueno gent pos aki teniu la tablatura del solo de no tingues por!


E||-------------------------------------|------------------------------|
B||------------------------------10-----|------------------------------|
G||------7-----9^-9--7---7--9-7--9^9r9^-|-6-7-6----6----------7-9^-9r--|
D||---9----9-----------9----------------|-------7-9-------7-9----------|
A||-------------------------------------|------------7--9--------------|
E||-------------------------------------|------------------------------|


|-------------------------------------------------------|
|---7h8p7---------7h8p7--------7-8-10-8--7--------------|
|---------9-7-9---------9-7-9--------------9-7--6-7-8-7-|
|-------------------------------------------------------|
|-------------------------------------------------------|
|-------------------------------------------------------|


|-----------------------------|
|-----------------------------|
|------7-9-7-9^9r-7-9--9^9r9^-|
|--7-9------------------------|
|-----------------------------|
|-----------------------------|


By: Andreu
Suggest correction
Give kudos to tab author, rate the tab!
1 2 3 4 5
comments
print report bad tab
guest
You may want to rate the tab now too:
select rating
Wanna post a correction for this tab? Suggest correction