Oops, an error
Loading. Please wait.

Novembre Chords

version 1
version 1

Whole song

Interactive

117 views 1 this week
no commentswrite comment
1 2 3 4 5
3 more votes to show rating
add to favorites
×
Save as Personal and add changes to this tab that will be seen only by you. Learn more ›
×
You can save this tab as Personal to edit and correct it or add notes. All changes will be seen only by you. Learn more »
save as personal
new!
launch autoscroll
font size
0
reset
transpose
0
reset
display chords
guitar tuner
Autoscroll
slow
fast
+/-
esc
set tempo
stop
Strumming
There is no strumming pattern for this song yet. and get +5 IQ
La cancion creo que esta mas o menos bien pues la he sacado de un concierto

INTRO

E||-------2----------5-----|-----------5-----------
B||----------2----------5--|-----5-----------------
G||-------------6----------|--6-----6--------------
D||--4----------7----------|--7--------------------x2
A||--4----------5----------|--7--------------------
E||--2----------5----------|--5--------------------


-------------------------5-|--------------------
--------------------5------|--------------------
--8------6------6-----6----|--6------6------8---
--9------7------7----------|--7------7------9---
--9------5------7----------|--5------7------9---
--7------5------5----------|--5------5------7---

INTRO

Fou un fred i trist novembre
en la tardor del nostre plor,
de la terra naix un xiscle
testimoni d´una mort.

A                            F#
Abm A mirada bategaves
F#                A     B
abans de la teua nit,
B                    A             F#
i amb les paraules desvetllaves
F#                     A         B
tots els silencis i els crits.

A         F#     A                          B
Jo tornaré a cridar el teu nom contra el vent.

los mismos acordes mientras suena la dolçaina

despues se repite la intro y otra vez todo igual

la nota 'B' al igual que en la intro se toca siempre en el traste 7

CALIFICARLA XFAVOR
Suggest correction
Give kudos to tab author, rate the tab!
1 2 3 4 5
comments
print report bad tab
guest
Wanna post a correction for this tab? Suggest correction