Oops, an error
Loading. Please wait.

Novembre Tab

23 views 1 this week
no commentswrite comment
1 2 3 4 5
3 more votes to show rating
add to favorites
launch autoscroll
font size
0
reset
how to read this tab
guitar tuner
×
Best way to learn
"Novembre"
Autoscroll
slow
fast
+/-
esc
set tempo
stop
He tret amb la guitarra els solos que fa la dolçaina, ja que no se
tocar-la. Crec que estan bastant be. Accepte sugerències i correccions.
(pablitomg16@

Solo 1:

E-----------------------------------------------------------
B------7-9-10-----------------------------------------------
G--4s6--------6v---6-7-9-11-9v--6-------6-9----------6------
D---------------------------------9-7-9-----11-9-7-9---9---- x2
A-----------------------------------------------------------
E-----------------------------------------------------------


Al final de la cançó:

          ----------------------------------------------
          ------7-9-10-14-15 14-------------------------
Solo 1 +  --4s6-----------------16-14-13-13-14-13-------
          ----------------------------------------14-16-
          ----------------------------------------------
          ----------------------------------------------


          -----------------------------------------------------------------
          ----------------------------------7v-9-7----------10-9-7-----7v--
          13-14----13-14----13-14-13-11-9-6--------9v-6-7-9--------9-6-----
          ------14-------12------------------------------------------------
          -----------------------------------------------------------------
          -----------------------------------------------------------------
Suggest correction
Give kudos to tab author, rate the tab!
1 2 3 4 5
comments
print report bad tab
guest
You may want to rate the tab now too:
select rating
Wanna post a correction for this tab? Suggest correction