Oops, an error
Loading. Please wait.

Orbital Elements Bass Tab

version 1
version 1

Whole song

Interactive

5,041 views 6 this week
2 commentsread comments
1 2 3 4 5
x 3
add to favorites
launch autoscroll
font size
0
reset
guitar tuner
Autoscroll
slow
fast
+/-
esc
set tempo
stop
Help us to improve Ultimate-Guitar.com Take our survey!
×
Author
Tuning
D G C F A D
Band: Obscura
Song: Orbital Elements
Album: Cosmogenesis (2009)
Bassist: Jeroen Paul Thesseling
Tuning: D tuning
Tabbed by: ThrashMetalhead

Intro solo

A#|---------------------------------|
F |--------7-9----------------------|
C |-7-9-10------10-9-7\6------------|
G |---------------------------------|
D |-----------------------8-7-5-----|
A |-----------------------------4-4-|

A#|------------------------------------------------------------------------------|
F |---10----12----13/14-/17-16---------------------------------------------------|
C |----------------------------19-17-15-14-12-14/15--15-14-15--14-12--10-9-------|
G |-8----10----12----------------------------------------------------------11-7\-|
D |------------------------------------------------------------------------------|
A |------------------------------------------------------------------------------|

A#|-------------------------------------------------|
F |------------------8-----8------------------------|
C |----7-7-9-7-10\----------------9------9----6-9-6-|
G |----------------6----6----7-7\---7--7---6--------|
D |-5-----------------------------------------------|
A |-------------------------------------------------|

A#|-----------------------------------9-----------------|
F |---------------------8----8-7------------------------|
C |---7-----7-9-7-10\-----------------------------------|
G |-------------------6---6------8-8----10-10-10-10-8-7-|
D |-5---5-5---------------------------------------------|
A |-----------------------------------------------------|

A#|---------------------------------------------------------|
F |-----------------------8-------------9-------9-------8---|
C |-------7-------7-----------------------------------------|
G |-----------------6-6-6---6-6-6-7-7-7---7-7-7---6-6-6-----|
D |-5-5-5---5-5-5-----------------------------------------8-|
A |---------------------------------------------------------|

A#|---------------------------------------------------------------------------|
F |-----------------------8-------------9-------9-----------------------------|
C |-------7-------7-----------------------------------------------------------|
G |-----------------6-6-6---6-6-6-7-7-7---7-7-7---8-8-8-8-8-8-8-10-10---7-7---|
D |-5-5-5---5-5-5-----------------------------------------------------0-----0-|
A |---------------------------------------------------------------------------|

A#|-----------------------------|-----------------------------|
F |-----------------------------|-----------------------------|
C |-----------------------------|-----------------------------|
G |-----------------------------|-6-6-6-6-------6-6-6-6-------|
D |-5-5-5-5-8-7-0-5-5-5-5-8-7-0-|---------8-7-----------8-7---|
A |-----------------------------|-------------9-------------9-|
  |                                                             x2
A#|---------------------------------------------------------|
F |---------------------------------------------------------|
C |---------------------------------------------------------|
G |---------------6/7-9-9-9-9-9-8-8-8-8-8-8-8-10-10---7-7---|
D |-5-5-5-5-5-5-5-----------------------------------0-----0-|
A |---------------------------------------------------------|

A#|--------------------------------------|
F |-9-9-10-9-7-9-7-5------------9--------|
C |------------------9-7-7-9-10---10-9-6-|
G |--------------------------------------|
D |--------------------------------------|
A |--------------------------------------|

A#|-------------------------------------------------------------------------|
F |-------------------------------------------------------------------------|
C |-------------------------------------------------------------------------|
G |-------------------------6-6-6-6-6-6-6-6-6-6-6-6-7-7-7-7-7-7-7-7-7-7-7-7-|
D |-5-5-5-5-5-5-5-5-5-5-5-5-------------------------------------------------|
A |-------------------------------------------------------------------------|
  |
A#|-------------------------|
F |-------------------------|
C |-------------------------|
G |-6-6-6-6-6-6-6-6-6-6-6-6-|
D |-------------------------|
A |-------------------------|

A#|-------------------------------------------------------------------------|
F |-------------------------------------------------------------------------|
C |-------------------------------------------------------------------------|
G |-------------------------6-6-6-6-6-6-6-6-6-6-6-6-7-7-7-7-7-7-7-7-7-7-7-7-|
D |-5-5-5-5-5-5-5-5-5-5-5-5-------------------------------------------------|
A |-------------------------------------------------------------------------|

A#|-----------------|
F |-10--------------|
C |----12-12-10-7-6-|
G |-----------------|
D |-----------------|
A |-----------------|

A#|-------------------------------------------------------------------------|
F |-------------------------------------------------------------------------|
C |-------------------------------------------------------------------------|
G |-------------------------6-6-6-6-6-6-6-6-6-6-6-6-7-7-7-7-7-7-7-7-7-7-7-7-|
D |-5-5-5-5-5-5-5-5-5-5-5-5-------------------------------------------------|
A |-------------------------------------------------------------------------|
  |
A#|-------------------------|
F |-------------------------|
C |-------------------------|
G |-6-6-6-6-6-6-6-6-6-6-6-6-|
D |-------------------------|
A |-------------------------|

A#|-------------------------------------------------------------------------|
F |-------------------------------------------------------------------------|
C |-------------------------------------------------------------------------|
G |-------------------------6-6-6-6-6-6-6-6-6-6-6-6-7-7-7-7-7-7-7-7-7-7-7-7-|
D |-5-5-5-5-5-5-5-5-5-5-5-5-------------------------------------------------|
A |-------------------------------------------------------------------------|

Bass solo

A#|---------------------------16-16b--16-14-------------------------------
F |--------9------------14------------------14-13--10-10-10-13-10h13p10\9-
C |-7-9-10---10-7-6--12----12---------------------------------------------
G |-----------------------------------------------------------------------
D |-----------------------------------------------------------------------
A |-----------------------------------------------------------------------

--------------------------------------------------------------------------------|
-7-7-10-9\7/9--------13--------------------------10/13-13/14\13-13/17\13\14\13\-|
------------------12-------12---------------------------------------------------|
--------------12\-------11-------11---------------------------------------------|
------------------------------10------10----------------------------------------|
------------------------------------9----3-3-3-3--------------------------------|

A#|----------16-16b--16-14-------------------------------------------------
F |----14------------------14-13--10-10-10-13-10h13p10\9--7-7-10-9\7/9-----
C |-12----12---------------------------------------------------------------
G |--------------------------------------------------------------------12\-
D |------------------------------------------------------------------------
A |------------------------------------------------------------------------

---------------------------------------------------------------|
----13--------------------------10/13-13/14\13-13/17\13\14\13\-|
-12-------12---------------------------------------------------|
-------11-------11---------------------------------------------|
-------------10------10----------------------------------------|
-------------------9----3-3-3-3--------------------------------|

A#|-------------------------------------------------------------------------|
F |-------------------------------------------------------------------------|
C |-------------------------------------------------------------------------|
G |-------------------------6-6-6-6-6-6-6-6-6-6-6-6-7-7-7-7-7-7-7-7-7-7-7-7-|
D |-5-5-5-5-5-5-5-5-5-5-5-5-------------------------------------------------|
A |-------------------------------------------------------------------------|
  |                                                                           x2
A#|-------------------------|
F |-------------------------|
C |-------------------------|
G |-6-6-6-6-6-6-6-6-6-6-6-6-|
D |-------------------------|
A |-------------------------|

Guitar solo

A#|-------------------------------------------------------------------------|
F |-------------------------------------------------------------------------|
C |-------------------------------------------------------------------------|
G |-------------------------6-6-6-6-6-6-6-6-6-6-6-6-7-7-7-7-7-7-7-7-7-7-7-7-|
D |-5-5-5-5-5-5-5-5-5-5-5-5-------------------------------------------------|
A |-------------------------------------------------------------------------|
  |                                                                           x2
A#|-------------------------|
F |-------------------------|
C |-------------------------|
G |-6-6-6-6-6-6-6-6-6-6-6-6-|
D |-------------------------|
A |-------------------------|

A#|-----------------------------|
F |-----------------------------|
C |-----------------------6-7-6-| x4
G |-------------7-6-6-----------|
D |-4-7-4-7-5-8-------3-4-------|
A |-----------------------------|

A#|------------------------------------------|
F |------------------------------------------|
C |------------------------------------------|
G |-----------7/10\7\6--------7/10\7\6-------|
D |-4--5-4-4------------5-4-4----------3-2-1-|
A |------------------------------------------|
  |                                            x2
A#|-----------------------------------------|
F |-----------------------------------------|
C |-----------------------------------------|
G |-----------7/10\7\6--------7/10\7\6------|
D |-4--5-4-4------------5-4-4----------3--1-|
A |-----------------------------------------|

A#|-----------------------------|
F |-----------------------------|
C |-----------------------6-7-6-| x4
G |-------------7-6-6-----------|
D |-4-7-4-7-5-8-------3-4-------|
A |-----------------------------|

A#|---------------|
F |---------------|
C |---------------|
G |-7/10\7\6------|
D |----------3--1-|
A |---------------|

A#|---------------------------------------------------------|
F |-----------------------8-------------9-------9-------8---|
C |-------7-------7-----------------------------------------|
G |-----------------6-6-6---6-6-6-7-7-7---7-7-7---6-6-6-----|
D |-5-5-5---5-5-5-----------------------------------------8-|
A |---------------------------------------------------------|

A#|---------------------------------------------------------------------------|
F |-----------------------8-------------9-------9-----------------------------|
C |-------7-------7-----------------------------------------------------------|
G |-----------------6-6-6---6-6-6-7-7-7---7-7-7---8-8-8-8-8-8-8-10-10---7-7---|
D |-5-5-5---5-5-5-----------------------------------------------------0-----0-|
A |---------------------------------------------------------------------------|

Outro

A#|-----------------------------|-----------------------------|
F |-----------------------------|-----------------------------|
C |-----------------------------|-----------------------------|
G |-----------------------------|-6-6-6-6-------6-6-6-6-------|
D |-5-5-5-5-8-7-0-5-5-5-5-8-7-0-|---------8-7-----------8-7---|
A |-----------------------------|-------------9-------------9-|
  |                                                             x2
A#|---------------------------------------------------------|
F |---------------------------------------------------------|
C |---------------------------------------------------------|
G |---------------6/7-9-9-9-9-9-8-8-8-8-8-8-8-10-10---7-7---|
D |-5-5-5-5-5-5-5-----------------------------------0-----0-|
A |---------------------------------------------------------|

A#|-------------------|
F |-------------------|
C |-------------------|
G |-------------7-6-6-|
D |-4-7-4-7-5-8-------|
A |-------------------|

Legend
------
| / = slide up
| \ = slide down
| b = bend
| h = hammer-on
| p = pull-off
Suggest correction
Give kudos to tab author, rate the tab!
1 2 3 4 5
comments
print report bad tab
2 comments total.
0 reply
johnthebassist4 20 Jun 04, 2012 07:18 PM

Sounds pretty dead on to me. I've been trying to figure out how to play this forever, thanks for tabbing it out.

0 reply
stevenrjackso 1,622 Aug 16, 2016 03:35 PM

More indication of the timing would be useful, but as far as the order of the notes this seems quite accurate. Thanks!

guest
You may want to rate the tab now too:
select rating
Wanna post a correction for this tab? Suggest correction