Oops, an error
Loading. Please wait.

Te Visitara La Muerte Tab

version 2
version 2

Whole song

Interactive

347 views 3 this week
2 commentsread comments
1 2 3 4 5
2 more votes to show rating
add to favorites
launch autoscroll
font size
0
reset
how to read this tab
guitar tuner
×
Best way to learn
"Te Visitara La Muerte"
Autoscroll
slow
fast
+/-
esc
set tempo
stop
Esta transcripcion esta mejor q la anterior q han mandado
esta correcta... solo me falto sacar el solo =)
pero lo demas esta super bien!... disfrutenla ps...


1|-----------------------------------------|
2|-----------------------------------------|
3|-------P.M-------------------P.M---------|
4|-7s9---9-9---11-12---7s9---9-9-9-9-9-9---|
5|-5s7---7-7---9?-10---5s7---7-7-7-7-7-7---|
6|-----------------------------------------|(X3)

1|-------------------------|
2|-------------------------|
3|-------P.M---------------|
4|-7s9---9-9---11-12---7---|
5|-5s7---7-7---9?-10---5---|
6|-------------------------|

El viento con fuerza, gemia, lloraba
Arrastraba su figura
Llamo a mi puerta vestida de negro
En una noche sin luna
1|----------------------------------------|
2|----------------------------------------|
3|---------12-11-11------------11-12-12---|
4|-7s9-9----x?-x?-x----7s9-9---x---x?-x---|
5|-5s7-7---10?-9?-9----5s7-7---9?-10-10---|
6|----------------------------------------|(base de la letra)

   Era la muerte, ella me visito
1|----------------------------------------------------------------------|
2|----------------------------------------------------------------------|
3|-----P.M----------------P.M----------P.M---------11-11-11---11-11-11--|
4|-10-10-10-10-10-10---7-7-7-7-7-7---9-9-9-9-9-9---x?-x---x---x---x?-x--|
5|-10-10-10-10-10-10---7-7-7-7-7-7---9-9-9-9-9-9---9?-9---9---9---9?-9--|
6|-8?-8---8?-8?-8?-8---5-5-5-5-5-5---7-7-7-7-7-7------------------------|

   Y sin palabras me condeno
1|-------------------------------------------------------------------|
2|-------------------------------------------------------------------|
3|-----P.M---------------P.M-----------P.M---P.M---P.M---------------|
4|-10-10-10-10-10-10---7-7-7-7-7-7---9-----9-----9-----9-9-9-9-9-9---|
5|-10-10-10-10-10-10---7-7-7-7-7-7---9-----9-----9-----9-9-9-9-9-9---|
6|-8---8?-8?-8?-8?-8---5-5-5-5-5-5---7-7-7-7-7-7-7-7-7-7-7-7-7-7-7---|

   Te visitrara la muerte
1|-----------------------------------------|
2|-----------------------------------------|
3|-------P.M-------------------P.M---------|
4|-7s9---9-9---11-12---7s9---9-9-9-9-9-9---|
5|-5s7---7-7---9?-10---5s7---7-7-7-7-7-7---|
6|-----------------------------------------|(X3)

   ¡LA MUERTE!
1|-------------------------|
2|-------------------------|
3|-------P.M---------------|
4|-7s9---9-9---11-12---7---|
5|-5s7---7-7---9?-10---5---|
6|-------------------------|

Comio en mi mesa, durmio en mi cama
Se adueño de mi alma
Fria como el hielo mis labios beso
Su astucia me engaño
1|----------------------------------------|
2|----------------------------------------|
3|---------12-11-11------------11-12-12---|
4|-7s9-9----x?-x?-x----7s9-9---x---x?-x---|
5|-5s7-7---10?-9?-9----5s7-7---9?-10-10---|
6|----------------------------------------|(base de la letra)

   Era la muerte, ella me visito
1|----------------------------------------------------------------------|
2|----------------------------------------------------------------------|
3|-----P.M----------------P.M----------P.M---------11-11-11---11-11-11--|
4|-10-10-10-10-10-10---7-7-7-7-7-7---9-9-9-9-9-9---x?-x---x---x---x?-x--|
5|-10-10-10-10-10-10---7-7-7-7-7-7---9-9-9-9-9-9---9?-9---9---9---9?-9--|
6|-8?-8---8?-8?-8?-8---5-5-5-5-5-5---7-7-7-7-7-7------------------------|

   Y sin palabras me condeno
1|-------------------------------------------------------------------|
2|-------------------------------------------------------------------|
3|-----P.M---------------P.M-----------P.M---P.M---P.M---------------|
4|-10-10-10-10-10-10---7-7-7-7-7-7---9-----9-----9-----9-9-9-9-9-9---|
5|-10-10-10-10-10-10---7-7-7-7-7-7---9-----9-----9-----9-9-9-9-9-9---|
6|-8---8?-8?-8?-8?-8---5-5-5-5-5-5---7-7-7-7-7-7-7-7-7-7-7-7-7-7-7---|

   Te visitrara la muerte
1|-----------------------------------------|
2|-----------------------------------------|
3|-------P.M-------------------P.M---------|
4|-7s9---9-9---11-12---7s9---9-9-9-9-9-9---|
5|-5s7---7-7---9?-10---5s7---7-7-7-7-7-7---|
6|-----------------------------------------|(X3)

  Te visitara la muerte...
1|-----------------------------------------------------------|
2|-----------------------------------------------------------|
3|-------P.M-------------------------------------------------|
4|-7s9---9-9---11-12---9---7---4-----4-----4-----4-4-4-4-4---|
5|-5s7---7-7---9?-10---7---5---2-2-2-2-2-2-2-2-2-2-2-2-2-2---|
6|-----------------------------------------------------------|

(Base del solo)
1|-------------------------|
2|-------------------------|
3|-------------------------|
4|---9---7-----------------|
5|---7---5-----------------|
6|-----------3-2-3-2-3-5---|(X4)

1|----------------------------------------------------------------------|
2|----------------------------------------------------------------------|
3|-----P.M----------------P.M----------P.M---------11-11-11---11-11-11--|
4|-10-10-10-10-10-10---7-7-7-7-7-7---9-9-9-9-9-9---x?-x---x---x---x?-x--|
5|-10-10-10-10-10-10---7-7-7-7-7-7---9-9-9-9-9-9---9?-9---9---9---9?-9--|
6|-8?-8---8?-8?-8?-8---5-5-5-5-5-5---7-7-7-7-7-7------------------------|

1|-------------------------------------------------------------------|
2|-------------------------------------------------------------------|
3|-----P.M---------------P.M-----------P.M---P.M---P.M---------------|
4|-10-10-10-10-10-10---7-7-7-7-7-7---9-----9-----9-----9-9-9-9-9-9---|
5|-10-10-10-10-10-10---7-7-7-7-7-7---9-----9-----9-----9-9-9-9-9-9---|
6|-8---8?-8?-8?-8?-8---5-5-5-5-5-5---7-7-7-7-7-7-7-7-7-7-7-7-7-7-7---|

Te visitrara la muerte
1|-----------------------------------------|
2|-----------------------------------------|
3|-------P.M-------------------P.M---------|
4|-7s9---9-9---11-12---7s9---9-9-9-9-9-9---|
5|-5s7---7-7---9?-10---5s7---7-7-7-7-7-7---|
6|-----------------------------------------|(X3)

  Te visitara ¡LA MUERTE!
1|-------------------------|
2|-------------------------|
3|-------P.M---------------|
4|-7s9---9-9---11-12---7---|
5|-5s7---7-7---9?-10---5---|
6|-------------------------|

Mi cuerpo temblaba, mi frente sudaba
Como si me torturaran
Un grito en la noche, la luz se prendio
La pesadilla termino
1|----------------------------------------|
2|----------------------------------------|
3|---------12-11-11------------11-12-12---|
4|-7s9-9----x?-x?-x----7s9-9---x---x?-x---|
5|-5s7-7---10?-9?-9----5s7-7---9?-10-10---|
6|----------------------------------------|(base de la letra)

   Todo fue un sueño de ciencia ficcion
1|----------------------------------------------------------------------|
2|----------------------------------------------------------------------|
3|-----P.M----------------P.M----------P.M---------11-11-11---11-11-11--|
4|-10-10-10-10-10-10---7-7-7-7-7-7---9-9-9-9-9-9---x?-x---x---x---x?-x--|
5|-10-10-10-10-10-10---7-7-7-7-7-7---9-9-9-9-9-9---9?-9---9---9---9?-9--|
6|-8?-8---8?-8?-8?-8---5-5-5-5-5-5---7-7-7-7-7-7------------------------|

   Y por siacaso vivo como Dios
1|-------------------------------------------------------------------|
2|-------------------------------------------------------------------|
3|-----P.M---------------P.M-----------P.M---P.M---P.M---------------|
4|-10-10-10-10-10-10---7-7-7-7-7-7---9-----9-----9-----9-9-9-9-9-9---|
5|-10-10-10-10-10-10---7-7-7-7-7-7---9-----9-----9-----9-9-9-9-9-9---|
6|-8---8?-8?-8?-8?-8---5-5-5-5-5-5---7-7-7-7-7-7-7-7-7-7-7-7-7-7-7---|

  Te visitrara la muerte
1|-----------------------------------------|
2|-----------------------------------------|
3|-------P.M-------------------P.M---------|
4|-7s9---9-9---11-12---7s9---9-9-9-9-9-9---|
5|-5s7---7-7---9?-10---5s7---7-7-7-7-7-7---|
6|-----------------------------------------|(varias veces)
Suggest correction
Give kudos to tab author, rate the tab!
1 2 3 4 5
comments
print report bad tab
2 comments total.
0 reply
ganz_mosqui 763 Oct 30, 2016 09:08 PM

Esta muy bien, solo falta el solo que lo subiste en la siguiente version, intentare escribirla para guitar pro.

0 reply
ganz_mosqui 763 Oct 31, 2016 08:09 AM

La ultima nota de la intro es 7 y no 5
9 7

guest
You may want to rate the tab now too:
select rating
Wanna post a correction for this tab? Suggest correction