Oops, an error
Loading. Please wait.

Te Visitara La Muerte Tab

version 3
version 3

Whole song

Interactive

by Obus
173 views 3 this week
1 commentread comment
1 2 3 4 5
2 more votes to show rating
add to favorites
launch autoscroll
font size
0
reset
how to read this tab
guitar tuner
Autoscroll
slow
fast
+/-
esc
set tempo
stop
Help us to improve Ultimate-Guitar.com Take our survey!
×
Hola soy el mismo del envio anterior de este tema
Aqui les mando el solo q me habia faltado sacar...
A mi parecer no esta del todo correcto pero creo q les va a ayudar
bastante a complementar la cancion...
Y si hay alguien q tiene el solo correcto, q lo envie pues...
ahi se los dejo....


-24b-24b-24b-24b-24b-24b---
---------------------------
---------------------------
---------------------------
---------------------------
---------------------------

---------------------------------------
15-17p15p17p15-15p13p15p13-13p12p13p12-
---------------------------------------
---------------------------------------
---------------------------------------
---------------------------------------

----------------------------------------------
12p10p12p10v-10p8p10p8-12p10p12p10p12p10p12p10
----------------------------------------------
----------------------------------------------
----------------------------------------------
----------------------------------------------

----------------------------------------------------------------------
-15p13p15p13-13p12p13p12-12p10p12p10-10p8p10p8-8p7p8p7-7p5p7p5-5p3p5p3
----------------------------------------------------------------------
----------------------------------------------------------------------
----------------------------------------------------------------------
----------------------------------------------------------------------

--------------------------------------------------------------------
---17---15----------------------------13s15s13-13-12-13-15-13-12-13-
-16---16---14-16-14-12-11-12s14-14v---------------------------------
--------------------------------------------------------------------
--------------------------------------------------------------------
--------------------------------------------------------------------

-------------------------------------------------------------
-15p13p15p13-13p12p13p12-12p10p12p10-10p8p10p8p10p8-10s12v---
-------------------------------------------------------------
-------------------------------------------------------------
-------------------------------------------------------------
-------------------------------------------------------------

---------------------------------
-13s15s13-13-12-13-15-13-12-13---
---------------------------------
---------------------------------
---------------------------------
---------------------------------

-12p10p12p10-10p8p10p8-8p7p8p7-------------------
------------------------------10p8p10p8-10s12v---
-------------------------------------------------
-------------------------------------------------
-------------------------------------------------
-------------------------------------------------


Casi todo el solo lo saq con el Pull off..
asi q no hay mucho q practikar...
Suggest correction
Give kudos to tab author, rate the tab!
1 2 3 4 5
comments
print report bad tab
1 comment total.
0 reply
ganz_mosqui 670 Oct 31, 2016 06:25 PM

La version Guitar Pro es la mas correcta esta tiene el solo terriblemente mal aparte de ser confusa

guest
You may want to rate the tab now too:
select rating
Wanna post a correction for this tab? Suggest correction