Oops, an error
Loading. Please wait.

Fleeting Mind bass

version 1
version 1

Whole song

Interactive

22 views 1 this week
no commentswrite comment
1 2 3 4 5
3 more votes to show rating
add to favorites
×
Save as Personal and add changes to this tab that will be seen only by you. Learn more ›
×
You can save this tab as Personal to edit and correct it or add notes. All changes will be seen only by you. Learn more »
launch autoscroll
font size
0
reset
guitar tuner
edit
Autoscroll
slow
fast
+/-
esc
set tempo
stop
Author
Difficulty
Ocean Colour Scene - Fleeting Mind

Mostly in 12/8 time, occasional bar of 6/8:

 Intro
|------------------------------------------------|------------------------------------------------|
|------------------------------------------------|-----------------------------------12-10--------|
|------------------------------------------------|-----------------------------------------12-----|
|------------------------------------------------|--------------------------------------------10\-|
 ^           ^           ^           ^            ^           ^           ^           ^            
 
|------------------------------------------------|------16------------16--------------------------|
|------------------------------------------------|---16-------1616--------------16----------------|
|------------------------------------------------|14--------14------14----1414--------1414--14\---|
|8-----------------------3-----------------------|------------------------------------------------|
 ^           ^           ^           ^            ^           ^           ^           ^            
 
|------------------------------------------------|------------------------------------------------|
|------------------------------------------------|------------------------------------------------|
|7-----------7-----------7-------------7---7\----|5-------------------5---------------------------|
|------------------------------------7-----------|----------------5-------2---------0-2---3---5---|
 ^           ^           ^           ^            ^           ^           ^           ^            
 
|------------------------------------------------|------------------------------------------------|
|------------------------------------------------|------------------------------------------------|
|3-----3-----3-------------3---3---0h3h5p3-------|2-----2-----2-----------2h3---2-----2h3p2p0-----|
|------------------------3-------------------5---|----------2-----------2-----------2---------3p2-|
 ^           ^           ^           ^            ^           ^           ^           ^            

 Verse 1 ('The brilliance of my fleeting mind...')
|------------------------13\---------------------|------------------------------------------------|
|------------------------14\---------------------|------------------------------------------------|
|------------------------------------------------|5-------------------------5---5-----5-----------|
|0-----------------------------------------------|------------------------5-------------------5---|
 ^           ^           ^           ^            ^           ^           ^           ^            

|------------------------------------------------|------------------------------------------------|
|------------------------------------------------|------------------------------------------------|
|3-----3-----3-------------3---3-----------------|2-----2-----2-----------2h3---2-----2h3p2p0-----|
|------------------------3-----------0---1---2---|----------------------2-----------2---------3p2-|
 ^           ^           ^           ^            ^           ^           ^           ^            

|------------------------------------------------|------------------------------------------------|
|------------2---2-------0h2---2-----2---2-------|------------------------------------------------|
|----------2-----------------------2---------2/--|5-----5-----5-------------5---5-----7---5-------|
|0-----0-----------------------------------------|------------------------5---------5---------5\--|
 ^           ^           ^           ^            ^           ^           ^           ^            

|------------------------------------------------|------------------------------16----------------|
|------------------------------------------------|---------------------------16-------16----------|
|3-----3-----3-------------3---3----h5---3---0---|2-----2-----2-----------14--------14--14-14\----|
|------------------------3---------3-------------|----------x-------------------------------------|
 ^           ^           ^           ^            ^           ^           ^           ^            

                                                  Chorus ('That's not hard...')
|------------------------------------------------7h9------7-------6\------|
|------------------------------------------------|------------------------|
|5h7---7-----5---7-------5h7---7-----7-----------|------------------------|
|----------7-------------------------------------|------------------------|
 ^           ^           ^           ^            ^           ^                

|2-----------------------------------------------|------------------------------------------------|
|------------------------------------------------|------------------------------------------------|
|--------------------12\-----------------4-4-5-5-|5h7---7-----5---7-------5h7---7-----5---7-------|
|------------------------5-5---5---0-5-5---------|----------7-----------------------7-------------|
 ^           ^           ^           ^            ^           ^           ^           ^            

|------------------------------------------------|------------------------------------------------|
|-----------/12--11--9---7-----------4h5p4-------|------------7-----------------------7-----------|
|5-------------------------------------------5---|----------------------------------------7---5---|
|------------------------------------------------|5-----------------------5-----------------------|
 ^           ^           ^           ^            ^           ^           ^           ^            

|------------------------------------------------|------------------------------------------------|
|------------------------------------------------|------------------------------------------------|
|5h7---7-----5---7-------5h7---7-----5-5-7-------|5h7---7-----5---7-------5h7---7-----5---7-------|
|----------7-----------------------7-------------|----------7-----------------------7---------7\--|
 ^           ^           ^           ^            ^           ^           ^           ^            

 Bridge ('Remember all our words...')
|------------------------------------------------|------------------------------------------------|
|------------------------------------14----------|------------------------------------------------|
|----------------------------------------14------|5-5---------------------------------------------|
/12------------------------------------------12\-|------------------------------------------------|
 ^           ^           ^           ^            ^           ^           ^           ^            

|------------------------|------------------------------------------------|
|------------------------|------------------------------------------------|
|3-3---------------------|2-2---------------------------------2h3p2p0-----|
|------------------------|--------------------------------------------3-2-|
 ^   ^   ^   ^   ^   ^    ^   ^   ^   ^   ^   ^   ^   ^   ^   ^   ^   ^   

|------------------------------------------------|------11----11-11---11--------11----11----------|
|------------------------------------------------|----11----11-----11---------11----11----11------|
|------7-----5---7-------5h7---7-----5---7---5---|9-9---------------------9-------------------9\--|
|0---------7-----------------------7-------------|------------------------------------------------|
 ^           ^           ^           ^            ^           ^           ^           ^            

|------------------------|------------------------------------------------|
|------------5---4---2---|------------------------------------------------|
|3-----------------------|2-----------------------------------------------|
|------------------------|------------5-----------3-----------2---2-------|
 ^   ^   ^   ^   ^   ^    ^   ^   ^   ^   ^   ^   ^   ^   ^   ^   ^   ^   

 Verse 2 ('The brilliance of their minds...')
|------------------------------------------------|------------------------------------------------|
|------------------------------------------------|------------------------------------------------|
|------------------------------------------------|5h7---7-----5---7-------5h7---7-----5h7-7-------|
/7-----------------------------------------------|----------7-----------------------7---------7---|
 ^           ^           ^           ^            ^           ^           ^           ^            

|------------------------------------------------|------------------------------------------------|
|------------------------------------------------|------------------------------------------------|
|5-----5-----5---5---------5---5---5-------------|3-----3-----3-------------3---3-----3-----------|
|----------5-------------5-----------2---3---5---|------------------------3---------3---------2---|
 ^           ^           ^           ^            ^           ^           ^           ^            

|------------------------------------------------|------------------------------------------------|
|------------------------------------------------|------------------------------------------------|
|2-----2-----2-----------2h3---2-----2h3p2p0-----/7-----7-----5---7-------5h7---7-----5---7-------|
|----------2-----------2-----------2---------3p2-|----------7-----------------------7-------------|
 ^           ^           ^           ^            ^           ^           ^           ^            

 Chorus ('And that's not hard...')
7h9------7-------6-------|2-----------------------------------------------|
|--------------------7\--|------------------------------------------------|
|------------------------|--------------------12\-----------------4-4-5-5-|
|------------------------|------------------------5-5---5---0-5-5---------|
 ^   ^   ^   ^   ^   ^    ^   ^   ^   ^   ^   ^   ^   ^   ^   ^   ^   ^   

|------------------------------------------------|------------------------------------------------|
|------------------------------------------------|-----------/12--11--9---7-----------4h5p4-------|
|5h7---7-----5---7-------5h7---7-----5---7-------|5-------------------------------------------5---|
|----------7-----------------------7-------------|------------------------------------------------|
 ^           ^           ^           ^            ^           ^           ^           ^            

|------------------------------------------------|------------------------------------------------|
|------------7\\---------------------------------|------------------------------------------------|
|------------------------------------4-4---4-4---|7-----------------------------------------------|
|5-----------------------5-5-5---5-------------5\|------------------------------------------------|
 ^           ^           ^           ^            ^           ^           ^           ^        

|------------------------------------------------|
|------------------------------------------------|
|------------------------------------------------|
|------------------------------------------------|
 ^           ^           ^           ^            

 Guitar solo
|------------------------------------------------|------------------------------------------------|
|------------------------------------------------|------------------------------------------------|
|--7---7-------7---7-------7---7-------7---7-----|--7---7-------7---7-------7---7---------2---0---|
|0-----------0-----------0-----------0-----------|0-----------0-----------0-----------2-3---3-----|
 ^           ^           ^           ^            ^           ^           ^           ^            

|------------------------------------------------|------------------------------------------------|
|------------------------------------------------|------------------------------------------------|
|5h7---7-----5---7-------5h7---7-----5---7-------|------------------------------------------------|
|----------7-----------------------7---------7\--|3h5---5---0-3---5-------3h5---5---0-3---5/--7---|
 ^           ^           ^           ^            ^           ^           ^           ^            

|------------------------------------------------|------------------------------------------------|
|------------------------------------------------|------------------------------------------------|
|5h7---7-----5---7-------5h7---7-----5---7-------|------------------------------------------------|
|----------7-----------------------7---------7\--|3h5---5---0-3---5-------3h5---5---0-3---5/--7---|
 ^           ^           ^           ^            ^           ^           ^           ^            

                                                  Verse 3 ('The brilliance of their minds...')
|------------------------------------------------|--------------------------------------------4---|
|------------------------------------------------|------------------------------------------------|
|5h7---7-----5---7-------5h7---7-----5-5-7\------|2-----------------------------------------------|
|----------7-----------------------7-------------|------------------------------------------------|
 ^           ^           ^           ^            ^           ^           ^           ^            
 
|------------------------------------------------|----------12h14---------------------------------|
|2---------------------14h16---------14----------|12----------------------------------------------|
|--------------------14--------------------------|------------------------------------------------|
|------------------------------------------------|------------------------------------------------|
 ^           ^           ^           ^            ^           ^           ^           ^            
 
|7h9---9---7-7h9-----9---7h9---9-----------------|------------------------------------------------|
|----------------------------------9\5---4---2---|------------------------------------------------|
|------------------------------------------------|2-----------------------------------2h3p2h3p2h3p|
|------------------------------------------------|------------5-----------3---3---3---------------|
 ^           ^           ^           ^            ^           ^           ^           ^            

                                                  Chorus ('And that's not hard...')
|-----------------------------------------------7h9-------7-------6-------2-----------------------|
|------------------------------------------------|--------------------7\--------------------------|
|5h7---7-----5---7-------5h7---7-----5---7-------|----------------------------------------4-4-5-5-|
|----------7-----------------------7-------------|------------------------------------5-5---------|
 ^           ^           ^           ^            ^           ^           ^           ^            
 
|------------------------------------------------|------------------------------------------------|
|------------------------------------------------|-----------/12--11--9---7-----------4h5p4---5---|
|5h7---7-----5---7-------5h7---7-----5---7-------|------------------------------------------------|
|----------7-----------------------7---------7---h10----------------------------------------------|
 ^           ^           ^           ^            ^           ^           ^           ^            
 
|------------------------------------------------|------------------------|
|------------------------------------------------|-----------/12--11--9---|
|5h7---7-----5---7-------5h7---7-----5---7-------|------------------------|
|----------7-----------------------7---------7---h10----------------------|
 ^   ^   ^   ^   ^   ^   ^   ^   ^   ^   ^   ^    ^   ^   ^   ^   ^   ^   

|------------------------------------------------|------------------------------------------------|
|7-----------------------------------------------|------------------------------------------------|
|--------------------12\-----------------4-4-5-5-|5h7---7-----5---7-------5h7---7-----5---7-------|
|------------------------5-5---5---0-5-5---------|----------7-----------------------7---------7---|
 ^           ^           ^           ^            ^           ^           ^           ^            
 
|------------------------|------------------------------------------------|
|------------------------|------------------------------------7-7---------|
/5-----------5-----------|----------------------------------------7-7-5---|
|----------------2---3---|5-----------5-----------5-5---5---5-------------|
 ^   ^   ^   ^   ^   ^    ^   ^   ^   ^   ^   ^   ^   ^   ^   ^   ^   ^   
 
|------------------------------------------------|------------------------|
|2-----2-----2---------------------------4---5---|7-----------------------|
|------------------------5-----5-----5-----------|--7---------------------|
|----------------3---5-------------5-------------|------5---0-5---2h3p2h3-|
 ^   ^   ^   ^   ^   ^   ^   ^   ^   ^   ^   ^    ^   ^   ^   ^   ^   ^   

 Outro guitar solo
|------------------------------------------------|------------------------------------------------|
|------------------------------------------------|------------------------------------------------|
|----------------------------------------2---3---|5-----5-----5-------5-----5---5-----5-----------|
|0-----0---0-2b--0---2b--3-----3---2-3-5---------|------------------------5-------5-5-----5\--2h3-|
 ^           ^           ^           ^            ^           ^           ^           ^            
 
|------------------------------------------------|------------------------------------------------|
|------------------------------------------------|----------------4---5---7-----------------------|
|----------------------------------------2---3---|5-----5-----5-------------7---------------------|
|0-----0---0-2b--0---2b--3-----3---2-3-5---------|----------5-------------------5-5---0/3/3---2h3-|
 ^           ^           ^           ^            ^           ^           ^           ^            
 
|------------------------------------------------|------------------------------------------------|
|------------------------------------------------|------------------------7-----------------------|
|----------------------------------------2---3---/5-----5-----5---5---5-----7---------------------|
|0-----0---0-2b--0---2b--3-----3---2-3-5---------|------------------------------5---0-2h3p2h3p2h3-|
 ^           ^           ^           ^            ^           ^           ^           ^            
 
|------------------------------------------------|------------------------------------------------|
|------------------------------------------------|------------------------7-----------------------|
|----------------------------------------2---3---/5-----5-----5---5---5-----7---------------------|
|0-----0---0-2b--0---2b--3-----3---2-3-5---------|------------------------------5---0-2h3p2h3p2h3-|
 ^           ^           ^           ^            ^           ^           ^           ^          

            
            
Suggest correction
Creating personal tab
Creating personal tab
You can edit any tab online and save it as your Personal.

You can edit, replace or remove any tab part or add personal notes – all changes will be seen only by you.

Personal tabs can be accessed anytime from any device, even offline.
Learn more »
Give kudos to tab author, rate the tab!
1 2 3 4 5
comments
print report bad tab
guest
You may want to rate the tab now too:
select rating
Wanna post a correction for this tab? Suggest correction