Oops, an error
Loading. Please wait.

Hundred Mile High City bass

version 2
version 2

Whole song

Interactive

499 views 3 this week
no commentswrite comment
1 2 3 4 5
3 more votes to show rating
add to favorites
×
Save as Personal and add changes to this tab that will be seen only by you. Learn more ›
×
You can save this tab as Personal to edit and correct it or add notes. All changes will be seen only by you. Learn more »
launch autoscroll
font size
0
reset
guitar tuner
backing track
0:00
0:00
edit
Autoscroll
slow
fast
+/-
esc
set tempo
stop
Author
Difficulty
Ocean Colour Scene - Hundred Mile High City

12/8 time, E minor (E aeolian)

Played with a plectrum (on a Dearmond I think!)

Few bars guitar riff, then bass comes in with the drum roll:

G|------------------------------------------------|
D|------------------------------------------------|
A|------------------------------------------------|
E|12--12--12--12--12--12--10--10--10--10--10--10--|
  ^   ^   ^   ^   ^   ^   ^   ^   ^   ^   ^   ^

G||------------------------|----------------------7-||
D||------------------------|------7---7-------7h9---||
A||------7---7-------10--10|------------------------||x3
E||0---0-------0-----------|------------------------||
   ^ ^ ^ ^ ^ ^ ^ ^ ^ ^ ^ ^  ^ ^ ^ ^ ^ ^ ^ ^ ^ ^ ^ ^
   1 + a 2 + a 3 + a 4 + a  etc.

G|------------------------|------------------------|
D|------------------------|------------------------|
A|------7---7-------5-3-2-|------------------------|
E|0---0-------0-----------|5-----------------------|
  ^ ^ ^ ^ ^ ^ ^ ^ ^ ^ ^ ^  ^ ^ ^ ^ ^ ^ ^ ^ ^ ^ ^ ^


G|------------------------|------------------------|
D|------------------------|------------------------|
A|7-----7---7-------7\\---|5-----5---5-------------|
E|------------7-----------|------------5\\---3-----|
  ^ ^ ^ ^ ^ ^ ^ ^ ^ ^ ^ ^  ^ ^ ^ ^ ^ ^ ^ ^ ^ ^ ^ ^

G|------------------------|------------------------|
D|------------------------|------------------5-----|
A|------------------7\\---|5-----5-----------------|
E|0-----0-----7-----------|------------5-----------|
  ^ ^ ^ ^ ^ ^ ^ ^ ^ ^ ^ ^  ^ ^ ^ ^ ^ ^ ^ ^ ^ ^ ^ ^

G|------------------------|------------------------|
D|------------------------|------------------------|
A|------7---7-------7\\---|5-----5-----------------|
E|0-----------7-----------|------------5\\---3-----|
  ^ ^ ^ ^ ^ ^ ^ ^ ^ ^ ^ ^  ^ ^ ^ ^ ^ ^ ^ ^ ^ ^ ^ ^

G|------------------------|------------------------|
D|------------------------|------------------------|
A|------------------7\\---|5-----5-----------10\\--|
E|0-----0-----7-----------|------------5//---------|
  ^ ^ ^ ^ ^ ^ ^ ^ ^ ^ ^ ^  ^ ^ ^ ^ ^ ^ ^ ^ ^ ^ ^ ^


G||------------------------|------------------------||
D||------------------------|------------------------||
A||3---3-------------------|5---5-------------------||x3
E||------------3---3-------|------------5---5-------||
   ^ ^ ^ ^ ^ ^ ^ ^ ^ ^ ^ ^  ^ ^ ^ ^ ^ ^ ^ ^ ^ ^ ^ ^

G|------------------------|------------------------|
D|------------------------|------------------------|
A|3---3-------------10\\\-|------------------------|
E|------------3///--------|0-----------------------|
  ^ ^ ^ ^ ^ ^ ^ ^ ^ ^ ^ ^  ^ ^ ^ ^ ^ ^ ^ ^ ^ ^ ^ ^


G||------------------------|----------------------7-||
D||------------------------|------7---7-------7h9---||
A||------7---7-------10--10|------------------------||x4
E||0---0-------0-----------|------------------------||
   ^ ^ ^ ^ ^ ^ ^ ^ ^ ^ ^ ^  ^ ^ ^ ^ ^ ^ ^ ^ ^ ^ ^ ^


G||------------------------|------------------------|
D||------------------------|------------------------|
A||7-----7-----------7\\---|5-----5-----------------|
E||------------7---7-------|------------5\\---3-----|
   ^ ^ ^ ^ ^ ^ ^ ^ ^ ^ ^ ^  ^ ^ ^ ^ ^ ^ ^ ^ ^ ^ ^ ^  \
   1 & a 2 & a 3 & a 4 & a  1 & a 2 & a 3 & a 4 & a  Repeat these 4 bars
                                                     /
G|------------------------|------------------------||
D|------------------------|------------------------||
A|------------------7\\---|5-----5-----------------||
E|0-----0-----7---7-------|------------5\\---3-----||
  ^ ^ ^ ^ ^ ^ ^ ^ ^ ^ ^ ^  ^ ^ ^ ^ ^ ^ ^ ^ ^ ^ ^ ^



G||------------------------|------------------------||
D||------------------------|------------------------||
A||3---3-------------------|5---5-------------------||x3
E||------------3---3-------|------------5---5-------||
   ^ ^ ^ ^ ^ ^ ^ ^ ^ ^ ^ ^  ^ ^ ^ ^ ^ ^ ^ ^ ^ ^ ^ ^

G|------------------------|------------------------|
D|------------------------|------------------------|
A|3---3-------------------|------------------------|
E|------------3---3-------|0-----0-----0-----0-----|
  ^ ^ ^ ^ ^ ^ ^ ^ ^ ^ ^ ^  ^ ^ ^ ^ ^ ^ ^ ^ ^ ^ ^ ^

2 bars’ rest, then


G|------------------------|------------------------|
D|------------------------|------------------------|
A|------------14----14---h|17----17----17----17----|
E|15----15----------------|------------------------|
  ^ ^ ^ ^ ^ ^ ^ ^ ^ ^ ^ ^  ^ ^ ^ ^ ^ ^ ^ ^ ^ ^ ^ ^

G|------------------------|------------------------|
D|------------------------|------------------------|
A|12--1212----12--1212----|12--1212----12--1212----|
E|------------------------|------------------------|
  ^ ^ ^ ^ ^ ^ ^ ^ ^ ^ ^ ^  ^ ^ ^ ^ ^ ^ ^ ^ ^ ^ ^ ^

G|------------------------|------------------------|
D|------------------------|----------------10------|
A|12----12----12----12----|12----12----12----12--10|
E|------------------------|------------------------|
  ^ ^ ^ ^ ^ ^ ^ ^ ^ ^ ^ ^  ^ ^ ^ ^ ^ ^ ^ ^ ^ ^ ^ ^

G|------------------------|------------------------|
D|------------------------|------------------------|
A|0-----0-----0---0-0-----|0-0-0-0-0-0-0-----0-----|
E|------------------------|------------------------|
  ^ ^ ^ ^ ^ ^ ^ ^ ^ ^ ^ ^  ^ ^ ^ ^ ^ ^ ^ ^ ^ ^ ^ ^

G|------------------------|------------------------|
D|------------------------|-------------------10-10|
A|------0-----0-----0-----|12----12----12----12----|
E|------------------------|------------------------|
  ^ ^ ^ ^ ^ ^ ^ ^ ^ ^ ^ ^  ^ ^ ^ ^ ^ ^ ^ ^ ^ ^ ^ ^

G|------------------------|------------------------|
D|------------------------|------------------------|
A|12----12----12--10------|------------------------|
E|------------------12--11|10--------8-10--8-------|
  ^ ^ ^ ^ ^ ^ ^ ^ ^ ^ ^ ^  ^ ^ ^ ^ ^ ^ ^ ^ ^ ^ ^ ^

G|------------------------|------------------------|
D|------------------------|---------10-12-10\\-----|
A|12----12----12--10------|------------------------|
E|------------------12--11|10----------------------|
  ^ ^ ^ ^ ^ ^ ^ ^ ^ ^ ^ ^  ^ ^ ^ ^ ^ ^ ^ ^ ^ ^ ^ ^

G|------------------------|------------------------|
D|------------------------|----------------//7-----|
A|0-----------------------|------------------------|
E|------------------------|------------------------|
  ^ ^ ^ ^ ^ ^ ^ ^ ^ ^ ^ ^  ^ ^ ^ ^ ^ ^ ^ ^ ^ ^ ^ ^

G|------------------------|------------------------|
D|------------------------|------------------------|
A|0-----------------------|------------------------|
E|------------------------|------------------------|
  ^ ^ ^ ^ ^ ^ ^ ^ ^ ^ ^ ^  ^ ^ ^ ^ ^ ^ ^ ^ ^ ^ ^ ^

4 bars’ rest then:

G||------------------------|----------------------7-||
D||------------------------|------7---7-------7h9---||
A||------7---7-------10--10|------------------------||x2
E||0---0-------0-----------|------------------------||
   ^ ^ ^ ^ ^ ^ ^ ^ ^ ^ ^ ^  ^ ^ ^ ^ ^ ^ ^ ^ ^ ^ ^ ^


G||------------------------|------------------------||
D||------------------------|------------------------||
A||------7-----7---7-------|5-----5-----------------||x3
E||0-----------------------|------------5\\---3-----||
   ^ ^ ^ ^ ^ ^ ^ ^ ^ ^ ^ ^  ^ ^ ^ ^ ^ ^ ^ ^ ^ ^ ^ ^


G|------------------------|-----/14----12----11----|
D|------------------------|----7--------------12-9\|
A|------7-----7---7-7-----|5-----------------------|
E|0-----------------------|------------------------|
  ^ ^ ^ ^ ^ ^ ^ ^ ^ ^ ^ ^  ^ ^ ^ ^ ^ ^ ^ ^ ^ ^ ^ ^

G||------------------------|------------------------||
D||------------------------|------------------------||
A||3---3-------------------|5---5-------------------||x5
E||------------3---3-------|------------5---5-------||
   ^ ^ ^ ^ ^ ^ ^ ^ ^ ^ ^ ^  ^ ^ ^ ^ ^ ^ ^ ^ ^ ^ ^ ^


G|------------------------|
D|------------------------|
A|3---3-------------------|
E|------------3---3-------|
  ^ ^ ^ ^ ^ ^ ^ ^ ^ ^ ^ ^

G|------------------------------------------------|
D|------------------------19--19--19--19\\\\\\\\\\|
A|5-------5---5///////////------------------------|
E|------------------------------------------------|
  ^   ^   ^   ^   ^   ^   ^   ^   ^   ^   ^   ^

G|------------------------|------------------------|
D|------------------------|------------------------|
A|3---3-------------------|5---5-------------------|
E|------------3---3-------|------------5---5-------|
  ^ ^ ^ ^ ^ ^ ^ ^ ^ ^ ^ ^  ^ ^ ^ ^ ^ ^ ^ ^ ^ ^ ^ ^

G|------------------------|------------------------|
D|------------------------|------------7-7-7-4-----|
A|3---3-------------------|5---5-5---------------5-|
E|------------3---3-------|------------------------|
  ^ ^ ^ ^ ^ ^ ^ ^ ^ ^ ^ ^  ^ ^ ^ ^ ^ ^ ^ ^ ^ ^ ^ ^

G|------------------------|------------------------|
D|------------------------|------------------------|
A|3---3-------------------|5---5-------------------|
E|------------3---3-------|------------5---5-------|
  ^ ^ ^ ^ ^ ^ ^ ^ ^ ^ ^ ^  ^ ^ ^ ^ ^ ^ ^ ^ ^ ^ ^ ^

G|------------------------|------------------------|
D|------------------------|----------//7---5-4-----|
A|3---3-------------------|5---5-5---------------5-|
E|------------3---3-------|------------------------|
  ^ ^ ^ ^ ^ ^ ^ ^ ^ ^ ^ ^  ^ ^ ^ ^ ^ ^ ^ ^ ^ ^ ^ ^

G|------------------------|------------------------|
D|------------------------|------------------------|
A|3---3-------------------|5---5-------------------|
E|------------3---3-------|------------5---5-------|
  ^ ^ ^ ^ ^ ^ ^ ^ ^ ^ ^ ^  ^ ^ ^ ^ ^ ^ ^ ^ ^ ^ ^ ^

G|------------------------|------------------------|
D|------------------------|----------------7\4-----|
A|3---3-------------------|5---5-5-----5/7-------5-|
E|------------3---3-------|------------------------|
  ^ ^ ^ ^ ^ ^ ^ ^ ^ ^ ^ ^  ^ ^ ^ ^ ^ ^ ^ ^ ^ ^ ^ ^

G|------------------------|------------------------|
D|------------------------|------------------------|
A|3---3-------------------|5---5-------------------|
E|------------3---3-------|------------5---5-------|
  ^ ^ ^ ^ ^ ^ ^ ^ ^ ^ ^ ^  ^ ^ ^ ^ ^ ^ ^ ^ ^ ^ ^ ^

G|------------------------|------------------------|
D|------------------------|------------------------|
A|3---3-------------------|5---5-5-----------------|
E|------------3---3-------|------------5-----5-5---|
  ^ ^ ^ ^ ^ ^ ^ ^ ^ ^ ^ ^  ^ ^ ^ ^ ^ ^ ^ ^ ^ ^ ^ ^

G|------------------------|------------------------|
D|------------------------|------------------------|
A|3---3-------------------|1---1-------------------|
E|------------3---3-------|------------1-----1-----|
  ^ ^ ^ ^ ^ ^ ^ ^ ^ ^ ^ ^  ^ ^ ^ ^ ^ ^ ^ ^ ^ ^ ^ ^

G|------------------------|----7-----7-7-----------|
D|------------------------|9-----9---------9-------|
A|------------------------|------------------9\\\\\|
E|0---0-------0---0-------|------------------------|
  ^ ^ ^ ^ ^ ^ ^ ^ ^ ^ ^ ^  ^ ^ ^ ^ ^ ^ ^ ^ ^ ^ ^ ^

G|------------------------|------------------------|
D|------------------------|------------------------|
A|5---5-5-----5---5-5-----|6---6-6-----------------|
E|------------------------|-----------------b3-----|
  ^ ^ ^ ^ ^ ^ ^ ^ ^ ^ ^ ^  ^ ^ ^ ^ ^ ^ ^ ^ ^ ^ ^ ^

G|------------------------|------------------------|
D|------------------------|----5------7b9r7--------|
A|----------------------5h|7-----------------7-----|
E|0---0-0-----0---0-0-----|------------------------|
  ^ ^ ^ ^ ^ ^ ^ ^ ^ ^ ^ ^  ^ ^ ^ ^ ^ ^ ^ ^ ^ ^ ^ ^

G|------------------------|------------------------|
D|------------------------|------------------------|
A|5-----5-----5---0h5-----|6-----6-----6-----6-----|
E|------------------------|------------------------|
  ^ ^ ^ ^ ^ ^ ^ ^ ^ ^ ^ ^  ^ ^ ^ ^ ^ ^ ^ ^ ^ ^ ^ ^

This bit is weird so I'm not 100%!


G||------------------------------------------------||
D||-----12h14-------------------12h14--------------||
A||------------------------------------------------||x2
E||12\\\\------0---0---0---12\\\\\-----0---0---0---||
   ^   ^   ^   ^   ^   ^   ^   ^   ^   ^   ^   ^

G|------------------------------------------------|
D|12h14-------------------12h14-------------------|
A|------------------------------------------------|
E|------------0-----------------------0-----------|
  ^   ^   ^   ^   ^   ^   ^   ^   ^   ^   ^   ^

G|------------------------------------------------|
D|12h14---12h14---12h14---12h14---12h14---12h14---|
A|------------------------------------------------|
E|------------------------------------------------|
  ^   ^   ^   ^   ^   ^   ^   ^   ^   ^   ^   ^


G||------------------------------------------------||
D||-----12h14-------------------12h14--------------||
A||------------------------------------------------||x2
E||12\\\\------0---0---0---12\\\\\-----0---0---0---||
   ^   ^   ^   ^   ^   ^   ^   ^   ^   ^   ^   ^

G|------------------------------------------------|
D|12h14-------------------12h14-------------------|
A|------------------------------------------------|
E|------------0-----------------------0-----------|
  ^   ^   ^   ^   ^   ^   ^   ^   ^   ^   ^   ^

G|------------------------|------------------------|
D|------------------------|------------------------|
A|5-----5-----6-----6-----|7-----------------------|
E|------------------------|------------------------|
  ^ ^ ^ ^ ^ ^ ^ ^ ^ ^ ^ ^  ^ ^ ^ ^ ^ ^ ^ ^ ^ ^ ^ ^
Suggest correction
Creating personal tab
Creating personal tab
You can edit any tab online and save it as your Personal.

You can edit, replace or remove any tab part or add personal notes – all changes will be seen only by you.

Personal tabs can be accessed anytime from any device, even offline.
Learn more »
Give kudos to tab author, rate the tab!
1 2 3 4 5
comments
print report bad tab
guest
You may want to rate the tab now too:
select rating
Wanna post a correction for this tab? Suggest correction