Oops, an error
Loading. Please wait.

The Day We Caught The Train Bass Tab

version 2
version 2

Whole song

Interactive

1,443 views 6 this week
no commentswrite comment
1 2 3 4 5
please rate
add to favorites
launch autoscroll
font size
0
reset
guitar tuner
Autoscroll
slow
fast
+/-
esc
set tempo
stop
Help us to improve Ultimate-Guitar.com Take our survey!
×
Contributor
Difficulty
intermediate
Great bassline, I recommend using a light overdrive and maybe a pick to get the aggressive tone
like on the record


rapping on the windows....

|--------------------------------------------------------------------------------|
|------------------------------------------------------------------------4-4-----|
|--8-8-8-8-8-8-8-8-7-7-7-7-7-7-7---------------------5-5-5-5-3-3-3-3-2-2-----2-2-|
|--------------------------------0-2-3-3-3-3-3-3-3-3-----------------------------|


|----9-9-----9-------------------9-9-----9------------14-14-14-14-14-|
|-------------------7-7-----7-------------------7--14----------------|
|--7-----7-7---7---------------7-----7-7---7-------------------------|
|-----------------5-----5-5-------------------5----------------------|


|---------------------------------------------------------------------------|
|------------7-----9-----7--------------------------------------------------|
|--5-5-5---7-----9-----7---7-7----------------------------------------------|
|--------5-----7-----5---------0--0-0-0-2-3-3-3-3-3-3-3-0-2-3-3-3-3-3-3-3-3-|

                        Chorus

|------------------------------------------------------------------------------------|
|-------------------------------------------5-4-2-------2--------------------5-4-2-2-|
|-----------------------5--5-7---------------------0h2----5-7-5----------------------|
|--5-5-5-5-5\9--9-9-9-9--------7-5-0-2-3-3----------------------7-5--0-2-3-3---------|

Verse

|----7----7--------------------------------------------------------------------------------|
|-------7--------------5-------------------------------------------------------------------|
|--5-----------5-----5----8-8-8-8-8-8-8-8-7-7-7-7-7-7-7-7-----------------5-5-5-3-3-3-2-2--|
|------------3---3-3--------------------------------------3-3-3-3-3-3-3-3------------------|


|----9-9-----9-------------------9-9-----9------------14-14-14-14-14-|
|-------------------7-7-----7-------------------7--14----------------|
|--7-----7-7---7---------------7-----7-7---7-------------------------|
|-----------------5-----5-5-------------------5----------------------|

|---------------------------------------------------------------------------|
|------------7-----9-----7--------------------------------------------------|
|--5-5-5---7-----9-----7---7-7----------------------------------------------|
|--------5-----7-----5---------0--0-0-0-2-3-3-3-3-3-3-3-0-2-3-3-3-3-3-3-3-3-|

                        Chorus

|------------------------------------------------------------------------------------|
|-------------------------------------------5-4-2-------2--------------------5-4-2-2-|
|-----------------------5--5-7---------------------0h2----5-7-5----------------------|
|--5-5-5-5-5\9--9-9-9-9--------7-5-0-2-3-3----------------------7-5--0-2-3-3---------|


you and I should

|--------------------------------------------7h9-7-|
|--7-7-5-5-4-4--------------------------7h9--------|
|--------------7-7-----------------5-5-------------|
|------------------5-5-7-7-5-5-7-5-----------------|


you and I when...


|----------------------------------|
|--7-7-5-5-4-4---------------------|
|--------------7-7-----------------|
|------------------5-5-7-7-5-5-7-5-|

|---------------------------------|
|--------------------5-------2----|
|--5-5--5-------------------------|   X2
|---------5-5--5-3-3---3-0-0------|


|--------------------------------------|  Repeat till the end
|--------------------------5-4-2-2---2-|
|--5--5-7-5------------------------2---|
|-----------7-5-5--0-2-3-3-------------|


Hope that helped, as always listen to the track before and with good speakers/headphones
Any problems/requests contact me at tommunism_works@hotmail.co.uk
Suggest correction new What's this?
You can suggest a correction to this tab. Community and Mods will review your correction and vote to approve or reject it.
comments
We did not receive enough feedback on this tab! Please rate:
print report bad tab
1 2 3 4 5
guest
You may want to rate the tab now too:
select rating
Please do not post tabs as comments. Select "correction" instead!