Oops, an error
Loading. Please wait.

The Day We Caught The Train Bass Tab

version 3
version 3

Whole song

Interactive

802 views 1 this week
no commentswrite comment
1 2 3 4 5
please rate
add to favorites
launch autoscroll
font size
0
reset
guitar tuner
Autoscroll
slow
fast
+/-
esc
set tempo
stop
Help us to improve Ultimate-Guitar.com Take our survey!
×
Author
Difficulty
Ezy Rider 732
novice
Ocean Colour Scene - The Day We Caught The Train

Played by Damon Minchella

Tabbed by Ezy Rider

---

Verse 1

Four bars of rest, then:

"...pot"
  E                                G
G|--------------------------------|--------------------------------|
D|--------------------------------|--------------------------------|
A|--------------------------------|--------------------------------|
E|--------------------------0-1-2-|3---3---3---3---3---3---3---3---|
  ^       ^       ^       ^        ^       ^       ^       ^  

  D               C                B
G|--------------------------------|--------------------------------|
D|--------------------------------|--------4-----------------------|
A|5---5---5---5---3---3---3---3---|2---2-----------2---2-----------|
E|--------------------------------|--------------------------------|
  ^       ^       ^       ^        ^       ^       ^       ^  

  Em                               A
G|--------------------------------|--------------------------------|
D|-------14\-------------14\------|--------7\----------------------|
A|--------------------------------|------------------------4---5---|
E|12-------------12--12-----------|5-------------0-5---5-----------|
  ^       ^       ^       ^        ^       ^       ^       ^  

  Bridge
  Em                               A              (14s not 1-4s!)
G|--------9\----------------------|---------------/1414141414\-----|
D|--------------------------------|--------7-----7/----------------|
A|7---------------7---7-------7---|--------------------------------|
E|--------------7---------7h9-----|5-------------------------------|
  ^       ^       ^       ^        ^       ^       ^       ^  

  D               A#dim7           Bm              A/C#
G|--------------------------------|--------------------------------|
D|------------------------8-------|--------9-----------------------|
A|5-------5-----------7-------7---|----9-------9-------------------|
E|----------------6---------------|7---------------9-------9\------|
  ^       ^       ^       ^        ^       ^       ^       ^  

  Em                               G
G|--------------------------------|--------------------------------|
D|--------------------------------|--------------------------------|
A|--------------------------------|--------------------------------|
E|12\\\---0-------0---0---1---2---|3---3---3---3---3---3---3-0-1-2-|
  ^       ^       ^       ^        ^       ^       ^       ^  

  G                                A               A7/C#
G|--------------------------------|--------------------------------|
D|--------------------------------|--------------------------------|
A|--------------------------------|--------------2/4-------4-------|
E|3---3---3---3---3---3---3-0-2-3-|5-------5-----------------------|
  ^       ^       ^       ^        ^       ^       ^       ^  

  Refrain/Chorus/thing (whatever it's called!)
  D               A                G               Em7
G|--------------------------------|--------------------------------|
D|--------------------------------|--------5---4---2---------------|
A|5-----5h7p5---------------------|--------------------0---2-------|
E|------------7---5---5---0-------|3---3---------------------------|
  ^       ^       ^       ^        ^       ^       ^       ^  

  D               A                G               Em7
G|--------------------------------|--------------------------------|
D|--------------------------------|--------5---4---2---2-----------|
A|5-----5h7p5---------------------|--------------------------------|
E|------------7---5---5---0---2---|3---3---------------------------|
  ^       ^       ^       ^        ^       ^       ^       ^  

Verse 2
[six beats of rest, then:]
  D                                G
G|--------------------------------|--------------------------------|
D|------/12--------------12\\-----|------------------------5-------|
A|--------------------------------|--------5-----------------------|
E|10-----------------10-----------|3-------------0-3---3-----------|
  ^       ^       ^       ^        ^       ^       ^       ^  

  F                                E
G|--------------------------------|--------------------------------|
D|--------------------------------|--------------2p0h2-------------|
A|--------------------------------|--------------------------------|
E|1---1---1---1---1---1---1---1---|0---0---0---0-----------3-0-2---|
  ^       ^       ^       ^        ^       ^       ^       ^  

  G                                D               C
G|--------------------------------|--------------------------------|
D|--------------------------------|--------------------------------|
A|---------------10---8---7-------|--------------------------------|
E|3---0/-10\--0/--------------0/--|10--10--10--0/--8---8---8---8---|
  ^       ^       ^       ^        ^       ^       ^       ^  

  B                                Em
G|--------------------------------|--------------------------------|
D|--------------------------------|-------14\-------------14\------|
A|--------9-----------------------|--------------------------------|
E|7---7-----------7---7---0-------|12------------0-12-12-----------|
  ^       ^       ^       ^        ^       ^       ^       ^  

  A                                Em
G|--------------------------------|--------9-----------------------|
D|--------7-----------------------|--------------------------------|
A|------------------------5---5---|7---------------7---7-------7---|
E|5-------------0-5---5-----------|--------------7---------7h9-----|
  ^       ^       ^       ^        ^       ^       ^       ^  
  A
G|---------------/1414141414------|
D|--------7-----7/----------------|
A|--------------------------------|
E|5-------------------------------|
  ^       ^       ^       ^       

  D               A#dim7           Bm              A/C#
G|--------------------------------|--------------------------------|
D|------------------------8-------|------7h9-----------------------|
A|5-------5-----------7-------7---|--------------------------------|
E|----------------6---------------|7---------------9-------9-------|
  ^       ^       ^       ^        ^       ^       ^       ^  

  Em                               G
G|--------------------------------|--------------------------------|
D|--------------------------------|--------------------------------|
A|--------------------------------|--------------------------------|
E|12\-----0-----0-0---0---1---2---|3---3---3---3---3---3---3-0-1-2-|
  ^       ^       ^       ^        ^       ^       ^       ^  

  G                                A               A7/C#
G|--------------------------------|--------------------------------|
D|--------------------------------|--------------------------------|
A|--------------------------------|----------------4---4---4-------|
E|3---3---3---3---3---3---3-0-2-3-|5-------5-----5-----------------|
  ^       ^       ^       ^        ^       ^       ^       ^  

  D               A                G               Em7
G|--------------------------------|--------------------------------|
D|--------------------------------|--------5---4---2---------------|
A|5-----5h7p5---------------------|--------------------0---2-------|
E|------------7---5---5---0-------|3---3---------------------------|
  ^       ^       ^       ^        ^       ^       ^       ^  

  D               A                G               Em7
G|--------------------------------|--------------------------------|
D|--------------------------------|--------5---4-------------------|
A|5-----5h7p5---------------------|--------------------------------|
E|------------7---5---5---0---2---|3---3-----------0---0-----------|
  ^       ^       ^       ^        ^       ^       ^       ^  

[Two beats of rest, then:]
  A                                A
G|--------------------------------|--------------------------------|
D|7---7---5---5---4---4---2---2---|--------------------------------|
A|--------------------------------|0---0---2---2---4---4---5-------|
E|--------------------------------|--------------------------------|
  ^       ^       ^       ^        ^       ^       ^       ^  

  D                                A
G|--------------------7h9p7\------|--------------------------------|
D|--------------0-7h9-------------|7---7---5---5---4---4---2---2---|
A|5-------5-----------------------|--------------------------------|
E|--------------------------------|--------------------------------|
  ^       ^       ^       ^        ^       ^       ^       ^  

  A                                D               A
G|--------------------------------|--------------------------------|
D|--------------------------------|--------------------------------|
A|0---0---2---2---4---4---5---5---|5-------5-----5-----------------|
E|--------------------------------|----------------5---5---0-------|
  ^       ^       ^       ^        ^       ^       ^       ^  

  G               Em7              D               A
G|--------------------------------|--------------------------------|
D|--------5---4---2---------------|--------------------------------|
A|--------------------0---2h4p2---|5-------5-----5-----------------|
E|3-------------------------------|----------------5---5---0-------|
  ^       ^       ^       ^        ^       ^       ^       ^  

  G               Em7              D               A
G|--------------------------------|--------------------------------|
D|--------5---4---2---------------|--------------------------------|
A|--------------------0-----------|5-------5-----5-----------------|
E|3-----------------------0-------|----------------5---5---0-------|
  ^       ^       ^       ^        ^       ^       ^       ^  

 G               Em7              D               A
G|--------------------------------|--------------------------------|
D|--------5---4---2---------------|--------------------------------|
A|--------------------0-----------|5-------5-----5-----------------|
E|3-----------------------0-------|----------------5---5---0-------|
  ^       ^       ^       ^        ^       ^       ^       ^

 G               Em7              D               A
G|--------------------------------|--------------------------------|
D|--------5---4---2---------------|--------------------------------|
A|--------------------0-----------|5-------7-5---------------------|
E|3-----------------------0-------|------5-----7---5---5---0---2---|
  ^       ^       ^       ^        ^       ^       ^       ^  
and repeat these two bars above and that's the lot!
Suggest correction
What's this?
You can suggest a correction to this tab. Community and Mods will review your correction and vote to approve or reject it.
comments
We did not receive enough feedback on this tab! Please rate:
print report bad tab
1 2 3 4 5
guest
You may want to rate the tab now too:
select rating
Please do not post tabs as comments. Select "correction" instead!