Oops, an error
Loading. Please wait.

The Riverboat Song Tab

version 2
version 2

Intro

Whole song

Interactive

5,743 views 1 this week
no commentswrite comment
1 2 3 4 5
3 more votes to show rating
add to favorites
launch autoscroll
font size
0
reset
how to read this tab
guitar tuner
Autoscroll
slow
fast
+/-
esc
set tempo
stop
Help us to improve Ultimate-Guitar.com Take our survey!
×
Author
----------------------------------------------------------------------------
                     Riverboat Song - Ocean Colour Scene
----------------------------------------------------------------------------

Tabbed by: Chris Colyer
Email: gbob16@hotmail.com

Tuning: Standard

e|-------------------------------|
B|-------------------------------|
G|-------------------------------| x8
D|---------2--------2------------|
A|--2----5----2--5---------------|
E|-------------------------------|

e|-------------------------------|
B|---------5--------5------------|
G|--4----7----4--7---------------|  x4
D|-------------------------------|
A|-------------------------------|
E|-------------------------------|

Guitar 1:
e|---------5--------5------------|
B|--5----8----5--8---------------|
G|-------------------------------|
D|-------------------------------|
A|-------------------------------|
E|-------------------------------|
Guitar 2:                           x2
e|-------------------------------|
B|-------------------------------|
G|-------------------------------|
D|---------2--------2------------|
A|--2----5----2--5---------------|
E|-------------------------------|

e|-------------------------------|
B|---------5--------5------------|
G|--4----7----4--7---------------|  x2
D|-------------------------------|
A|-------------------------------|
E|-------------------------------|
Solo Guitar:
e|-10-7-10-7-10-7-10-12/14-12-10-7h10p7-7-|-----------5full bend(7)-|
B|----------------------------------------|3------------------------|
G|----------------------------------------|-4-2-4---4---------------|
D|----------------------------------------|-------------------------|
A|----------------------------------------|-------------------------|
E|----------------------------------------|-------------------------|
Plays over:
e|-------------------------------|   e|-------------------------------|
B|-------------------------------|   B|-------------------------------|
G|---------4--------4------------|   G|-------------------------------|
D|--4----7----4--7---------------|x2 D|---------2--------2------------| x2
A|-------------------------------|   A|--2-----5---2--5---------------|
E|-------------------------------|   E|-------------------------------|

| /  slide up
| \  slide down
| h  hammer-on
| p  pull-off
| ~  vibrato
| +  harmonic
| x  Mute note
============================================================================
Suggest correction
Give kudos to tab author, rate the tab!
1 2 3 4 5
comments
print report bad tab
guest
You may want to rate the tab now too:
select rating
Wanna post a correction for this tab? Suggest correction