Oops, an error
Loading. Please wait.

The Riverboat Song Tab

version 1
version 1

Whole song

Interactive

8,198 views 15 this week
5 commentsread comments
1 2 3 4 5
x 3
add to favorites
launch autoscroll
font size
0
reset
how to read this tab
guitar tuner
Autoscroll
slow
fast
+/-
esc
set tempo
stop
Help us to improve Ultimate-Guitar.com Take our survey!
×
Author
Difficulty
intermediate
-------------------------------------------------------------------------------
                             The Riverboat Song - Ocean Colour Scene
-------------------------------------------------------------------------------

Tabbed By : John McNally
e-mail: jm12u@hotmail.com

Tuning:Standard

This is in the right key as original and is pretty accurate 

Intro

G|--------------------------|     |------7--9--7---9-------|
D|-------0--2----0--2-------|     |--9-------9-------------|
A|---2--------2-------------| X8  |------------------ ------| x4
E|--------------------------|     |------------------------|

G|-------0--2----0--2-------|     |------------------------|
D|---2-------2--------------|     |-------0--2----0--2-----| X2
A|--------------------------| X2  |---2--------2-----------| 
E|--------------------------|     |------------------------|

G|-------2--4----2---4------|     |------------------------|
D|--4--------4--------------|     |------0--2-----0--2-----|
A|--------------------------| X2  |--2---------2-- --------| X2  
E|--------------------------|     |------------------------|


Verse 1 + 2 + 3

G|--------------------------|     |------0--2-----0---2--|
D|-------0--2----0--2-------|     |--2---------2---------|
A|---2--------2-------------| X4  |----------------------| x2
E|--------------------------|     |----------------------|

G|--------------------------|     |------0--2----0---2---|
D|-------0--2----0--2-------|     |--2--------2----------|
A|---2--------2-------------| X2  |----------------------| x2
E|--------------------------|     |----------------------|

G|--------------------------|     |---------------------------------------|
D|-------0--2----0--2-------|     |----4----3-----------------------------|
A|---2--------2-------------| X2  |-----------0-0-0-0-0-0-0------0---0-2--| 
E|--------------------------|     |--2---3------------------0--2---2------|

Bridge

G|-------------------------------|-------------------------------|
D|------------------0-0-0-0-0-0--|--2-2-2-2-2-2------------------|
A|---2-2-2-2-2-2-----------------|----------------0-0-0-0-0-0----| X1
E|-------------------------------|-------------------------------|

G|-------------------------------|---------------2-0-------------|
D|------------------0-0-0--0-0-0-|---2-2-2--2-2-2------4--2-0----|
A|---2-2-2--2-2-2----------------|---------------------------4---| X2
E|-------------------------------|-------------------------------|

G|-----------------------------|---------------------------------|
D|-----------------------------|---------------------------------|
A|--2-2-2--2-2-2--0-0-0--0-0-0-|----------------------0---0---2--|
E|-----------------------------|-4-4-4--4-4-4----0--2---2--------|

Give a listen and you will get the idea of the structure etc.

| /  slide up
| \  slide down
| h  hammer-on
| p  pull-off
| ~  vibrato
| +  harmonic
| x  Mute note
===============================================================================
Suggest correction
Give kudos to tab author, rate the tab!
1 2 3 4 5
comments
print report bad tab
5 comments total. Showing first comments.
0 reply
cjbarnard 10 Jul 11, 2015 06:03 AM

All of the notes in fret 1 should be 2

0 reply
John McNally 188 Jul 11, 2015 01:34 PM

you're right, a typo. - the wonders of cut and paste.

0 reply
John McNally 188 Jul 11, 2015 01:41 PM

this is correct

G|----------------------|
D|------0--2-----0?2----|
A|--2--------2----------|
E|----------------------|

guest
You may want to rate the tab now too:
select rating
Wanna post a correction for this tab? Suggest correction