Oops, an error
Loading. Please wait.

The Riverboat Song Bass Tab

version 2
version 2

Whole song

Interactive

3,754 views 9 this week
no commentswrite comment
1 2 3 4 5
excellent!
x 3
add to favorites
launch autoscroll
font size
0
reset
guitar tuner
Autoscroll
slow
fast
+/-
esc
set tempo
stop
Help us to improve Ultimate-Guitar.com Take our survey!
×
Author
Difficulty
novice
Ocean Colour Scene - The Riverboat Song

Bass played by Damon Minchella (fantastic bassist with
70s Fender Jazz)

Tabbed by Ezy Rider (bad bassist with 2012 Squier)


Whole song's in 6/8 time, although nothing weird in
here - just sounds normal.

(Also supposedly a rip-off of Zep's Four Sticks,
although not convinced myself...)


I'll be using repeat marks at the end of bars - || - 
as much of the song is repeated.

The x2 (etc.) notes at the end are for how many times
a section is played in total, not how many times it's
repeated - eg x3 means play it once and then play it
twice more.

-----

Intro

[Bass rests for two bars, then:]
   Bm
G||------------------------|------------------------||
D||------------------------|------------------------||
A||------5---7-----5---7---|------5---7-----5---7---||
E||7-----------7-----------|7-----------7-----------|| x3
   ^   ^   ^   ^   ^   ^    ^   ^   ^   ^   ^   ^  
   F#m
G||------------------------|------------------------||
D||-----12--14-------------|-----12--14-------------||
A||14---------14--12--14---|14---------14--12--14---|| x2
E||------------------------|------------------------||
   ^   ^   ^   ^   ^   ^    ^   ^   ^   ^   ^   ^  
  Em
G|------------------------|------------------------|
D|------------------------|------------------------|
A|------------------------|------------------------|
E|0-----3---5-0---3---5---|0-----3---5-0---3---5---|
  ^   ^   ^   ^   ^   ^    ^   ^   ^   ^   ^   ^  
  Bm
G|------------------------|------------------------|
D|------------------------|------------------------|
A|------5---7-----5---7---|------5---7-----5---7---|
E|7-----------7-----------|7-----------7-----------|
  ^   ^   ^   ^   ^   ^    ^   ^   ^   ^   ^   ^  
  F#m
G|------------------------|------------------------|
D|------7---9-----7---9---|------7---9-----7---9---|
A|9-----------9-----------|9-----------9-----------|
E|------------------------|------------------------|
  ^   ^   ^   ^   ^   ^    ^   ^   ^   ^   ^   ^  
  Bm
G|------------------------|------------------------|
D|------------------------|------------------------|
A|------5---7-----5---7---|------5---7-----5---7---|
E|7-----------7-----------|7-----------7-----------|
  ^   ^   ^   ^   ^   ^    ^   ^   ^   ^   ^   ^  

Verse ("I see double...")
   Bm
G||------------------------|------------------------||
D||------------------------|------------------------||
A||------5---7-----5---7---|------5---7-----5---7---||
E||7-----------7-----------|7-----------7-----------|| x2
   ^   ^   ^   ^   ^   ^    ^   ^   ^   ^   ^   ^  
   Em
G||------------------------|------------------------|
D||------5---7-----5---7---|------5---7-----5---7---|
A||7-----------7-----------|7-----------7-----------|
E||------------------------|------------------------|
   ^   ^   ^   ^   ^   ^    ^   ^   ^   ^   ^   ^     \   
  Bm                                                   x2
G|------------------------|------------------------|| /
D|------------------------|------------------------||
A|------5---7-----5---7---|------5---7-----5---7---||
E|7-----------7-----------|7-----------7-----------||
   ^   ^   ^   ^   ^   ^    ^   ^   ^   ^   ^   ^  
  Bm
G|------------------------|------------------------|
D|------------------------|------------------------|
A|------5---7-----5---7---|------5---7-----5---7---|
E|7-----------7-----------|7-----------7-----------|
  ^   ^   ^   ^   ^   ^    ^   ^   ^   ^   ^   ^  


Bridge ("It's more or less...")
  E           G            A
G|------------------------|------------------------|
D|----2-------------------|------------------------|
A|------------------------|------------------------|
E|0---------2-3---3---3---|5---5---5---5---5---5---|
  ^   ^   ^   ^   ^   ^    ^   ^   ^   ^   ^   ^  
                           ____________
  A                       |1. (Bm)
G|------------------------|------------------------|
D|------------------------|------------------------|
A|------------------------|2-----------------------|
E|5---0---2---5---2---5---|------------------------|
  ^   ^   ^   ^   ^   ^    ^   ^   ^   ^   ^   ^  

Refrain 1
[Three bars rest, then back to verse. Second time through play:]
  _________
 |2.  (Bm)                 D
G|------------------------|------------------------|
D|------------------------|------------------------|
A|------------------------|5---5---5---5---5---5---|
E|7---7---7---7---7---7---|------------------------|
  ^   ^   ^   ^   ^   ^    ^   ^   ^   ^   ^   ^  
  E                        A
G|------------------------|------------------------|
D|------------------------|------------------------|
A|7---7---7---7---7---7---|------------------------|
E|------------------------|5---5---5---5---5---6---|
  ^   ^   ^   ^   ^   ^    ^   ^   ^   ^   ^   ^  
   B                        D
G|------------------------|------------------------|
D|------------------------|------------------------|
A|------------------------|5---5---5---5---5---5---|
E|7---7---7---7---7---7---|------------------------|
  ^   ^   ^   ^   ^   ^    ^   ^   ^   ^   ^   ^     
  E                        A                          
G|------------------------|------------------------|
D|------------------------|7---5-------------------|
A|7---7---7---7---7---7---|--------7---6---5-------|
E|------------------------|--------------------5---|
  ^   ^   ^   ^   ^   ^    ^   ^   ^   ^   ^   ^  
   Bm                       D
G|------------------------|------------------------|
D|------------------------|------------------------|
A|------------------------|5---5---5---5---5---5---|
E|7---7---7---7---7---7---|------------------------|
  ^   ^   ^   ^   ^   ^    ^   ^   ^   ^   ^   ^     
  E                        Bm                          
G|------------------------|------------------------|
D|------------------------|7---5-------------------|
A|7---7---7---7---7---7---|--------7---6---5-------|
E|------------------------|--------------------5---|
  ^   ^   ^   ^   ^   ^    ^   ^   ^   ^   ^   ^  
  Bm                       D/A
G|------------------------|------------------------|
D|------------------------|------------------------|
A|------------------------|------------------------|
E|7---7---7---7---7---7---|5---5---5---5---5---5---|
  ^   ^   ^   ^   ^   ^    ^   ^   ^   ^   ^   ^  
  E/G#                     A
G|------------------------|------------------------|
D|------------------------|------------------------|
A|------------------------|------------------------|
E|4---4---4---4---4---4---|2---0---2---5---2---5---|
  ^   ^   ^   ^   ^   ^    ^   ^   ^   ^   ^   ^  
  Bm
G|------------------------|------------------------|
D|------------------------|------------------------|
A|2-----------------------|(rest)------------------|
E|------------------------|------------------------|
  ^   ^   ^   ^   ^   ^    ^   ^   ^   ^   ^   ^  

Verse 3
   Bm
G||------------------------|------------------------||
D||------------------------|------------------------||
A||------5---7-----5---7---|------5---7-----5---7---||
E||7-----------7-----------|7-----------7-----------|| x2
   ^   ^   ^   ^   ^   ^    ^   ^   ^   ^   ^   ^  
   Bm
G||------------------------|------------------------||
D||-----12--14-------------|-----12--14-------------||
A||14---------14--12--14---|14---------14--12--14---|| x2
E||------------------------|------------------------||
   ^   ^   ^   ^   ^   ^    ^   ^   ^   ^   ^   ^  
   Em
G||------------------------|------------------------|
D||------5---7-----5---7---|------5---7-----5---7---|
A||7-----------7-----------|7-----------7-----------|
E||------------------------|------------------------|
   ^   ^   ^   ^   ^   ^    ^   ^   ^   ^   ^   ^     \   
  Bm                                                   x2
G|------------------------|------------------------|| /
D|------------------------|------------------------||
A|------5---7-----5---7---|------5---7-----5---7---||
E|7-----------7-----------|7-----------7-----------||
   ^   ^   ^   ^   ^   ^    ^   ^   ^   ^   ^   ^  

Bridge ("It's more or less...")
  E           G            A
G|------------------------|------------------------|
D|----2-------------------|------------------------|
A|------------------------|------------------------|
E|0---------2-3---3---3---|5---5---5---5---5---5---|
  ^   ^   ^   ^   ^   ^    ^   ^   ^   ^   ^   ^  
                           
  A                         
G|------------------------|
D|------------------------|
A|------------------------|
E|5---0---2---5---2---5---|
  ^   ^   ^   ^   ^   ^   

Refrain
  Bm                       D
G|------------------------|------------------------|
D|------------------------|------------------------|
A|------------------------|5---5---5---5---5---5---|
E|7---7---7---7---7---7---|------------------------|
  ^   ^   ^   ^   ^   ^    ^   ^   ^   ^   ^   ^  
  E                        A
G|------------------------|------------------------|
D|------------------------|------------------------|
A|7---7---7---7---7---7---|------------------------|
E|------------------------|5---5---5---5---5---6---|
  ^   ^   ^   ^   ^   ^    ^   ^   ^   ^   ^   ^  
   Bm                       D
G|------------------------|------------------------|
D|------------------------|------------------------|
A|------------------------|5---5---5---5---5---5---|
E|7---7---7---7---7---7---|------------------------|
  ^   ^   ^   ^   ^   ^    ^   ^   ^   ^   ^   ^     
  E                        A                          
G|------------------------|------------------------|
D|------------------------|7---5-------------------|
A|7---7---7---7---7---7---|--------7---6---5-------|
E|------------------------|--------------------5---|
  ^   ^   ^   ^   ^   ^    ^   ^   ^   ^   ^   ^  
   Bm                       D
G|------------------------|------------------------|
D|------------------------|------------------------|
A|------------------------|5---5---5---5---5---5---|
E|7---7---7---7---7---7---|------------------------|
  ^   ^   ^   ^   ^   ^    ^   ^   ^   ^   ^   ^     
  E                        A                          
G|------------------------|------------------------|
D|------------------------|7---5-------------------|
A|7---7---7---7---7---7---|--------7---6---5-------|
E|------------------------|--------------------5---|
  ^   ^   ^   ^   ^   ^    ^   ^   ^   ^   ^   ^  
  Bm                       D/A
G|------------------------|------------------------|
D|------------------------|------------------------|
A|------------------------|------------------------|
E|7---7---7---7---7---7---|5---5---5---5---5---5---|
  ^   ^   ^   ^   ^   ^    ^   ^   ^   ^   ^   ^  
  E/G#                     A
G|------------------------|------------------------|
D|------------------------|------------------------|
A|------------------------|------------------------|
E|4---4---4---4---4---4---|2---0---2---5---2---5---|
  ^   ^   ^   ^   ^   ^    ^   ^   ^   ^   ^   ^  
  Bm
G|------------------------|
D|------------------------|
A|2-----------------------|
E|------------------------|
  ^   ^   ^   ^   ^   ^   

[then five bars of rest; then:]

Guitar solo (largely the intro again:)
   Bm
G||------------------------|------------------------||
D||------------------------|------------------------||
A||------5---7-----5---7---|------5---7-----5---7---||
E||7-----------7-----------|7-----------7-----------|| x2
   ^   ^   ^   ^   ^   ^    ^   ^   ^   ^   ^   ^  
   Bm
G||------------------------|------------------------||
D||-----12--14----12--14---|-----12--14----12--14---||
A||14---------14-----------|14---------14-----------|| x2
E||------------------------|------------------------||
   ^   ^   ^   ^   ^   ^    ^   ^   ^   ^   ^   ^  
  Em
G|------------------------|------------------------|
D|------------------------|------------------------|
A|------------------------|------------------------|
E|0-----3---5-0---3---5---|0-----3---5-0---3---5---|
  ^   ^   ^   ^   ^   ^    ^   ^   ^   ^   ^   ^  
  Bm
G|------------------------|------------------------|
D|------------------------|------------------------|
A|------5---7-----5---7---|------5---7-----5---7---|
E|7-----------7-----------|7-----------7-----------|
  ^   ^   ^   ^   ^   ^    ^   ^   ^   ^   ^   ^  
  F#m
G|------------------------|------------------------|
D|------7---9-----7---9---|------7---9-----7---9---|
A|9-----------7-----------|9-----------7-----------|
E|------------------------|------------------------|
  ^   ^   ^   ^   ^   ^    ^   ^   ^   ^   ^   ^  
  Bm
G|------------------------|------------------------|
D|------------------------|------------------------|
A|------5---7-----5---7---|------5---7-----5---7---|
E|7-----------7-----------|7-----------7-----------|
  ^   ^   ^   ^   ^   ^    ^   ^   ^   ^   ^   ^  
   Bm
G||------------------------|------------------------||
D||------------------------|------------------------||
A||------5---7-----5---7---|------5---7-----5---7---|| x2
E||7-----------7-----------|7-----------7-----------||
   ^   ^   ^   ^   ^   ^    ^   ^   ^   ^   ^   ^  
 
Bass solo
  
G|------------------------|----------------0---2---|
D|------------------------|------0-----2-----------|
A|7---------------0---1---|2-----------------------|
E|------0-----3-----------|------------------------|
  ^   ^   ^   ^   ^   ^    ^   ^   ^   ^   ^   ^  

G|4---------------0---2---|4-----------------------|
D|------------2-----------|------------2---0-------|
A|------2-----------------|------2-------------2---|
E|------------------------|------------------------|
  ^   ^   ^   ^   ^   ^    ^   ^   ^   ^   ^   ^  

G|------------------------|------------------------|
D|------------------------|------------------------|
A|------0---2-----0---2---|------0---2-----0---2---|
E|2-----------2-----------|2-----------2-----------|
  ^   ^   ^   ^   ^   ^    ^   ^   ^   ^   ^   ^  

G|------------------------|------------------------|
D|------------------------|------------------------|
A|------5---7-----5---7---|------5---7-----5---7---|
E|7-----------7-----------|7-----------7-----------|
  ^   ^   ^   ^   ^   ^    ^   ^   ^   ^   ^   ^  

Then keep playing this riff as need be. Done!
Suggest correction
Give kudos to tab author, rate the tab!
1 2 3 4 5
comments
print report bad tab
guest
You may want to rate the tab now too:
select rating
Please do not post tabs as comments. Select "correction" instead!