Oops, an error
Loading. Please wait.

Wont Get Grazed Acoustic Tab

2,295 views 3 this week
no commentswrite comment
1 2 3 4 5
excellent!
x 1
add to favorites
launch autoscroll
font size
0
reset
how to read this tab
guitar tuner
Tab Pro tools
  • play this tab
  • loop segment
  • change instrument
  • show fretboard
  • metronome
Autoscroll
slow
fast
+/-
esc
set tempo
stop
Contributor
Artist: Ocean Colour Scene
Song: Won't Get Grazed (Acoustic)

Tabbed by: Mike Montgomery
Contact: montymike@gmail.com
 __________________
|                  |
| CAPO ON 4TH FRET |
|__________________|

In my opinion, this is one of the most beautiful songs ever written
(another is Robin Hood). A little reminder that none of us should 
take life too seriously, and always remember to pick yourselves up
if you 'fall down on the road'.... :)

I have tabbed this all from ear and therefore have interpreted the
piano pieces as best I can on the acoustic guitar. Really it should
be viewed as a template to work with, so keep in mind that it's not
gospel and each player can tweak or add parts as (s)he sees fit.  
Obviously I'm open to comments and emails, and will credit anyone
who is of help or makes a valid contribution.  Enjoy!

And don't forget to RATE! I'd like to know what people think :)

() - a note inside brackets means it's playing is optional
h  - hammer
r  - let ring


Intro:

e|--2----2--0---0--------0--------0----------4-5-4-0-----|
B|--3----3--3---2--------0--------0----------------------|
G|--2----2--2---2--------2--(0)--(1)---------------------|
D|--0-----------2---2-2------0----2----------------------|
A|--------------0---0-0------0----2----------------------|
E|------------------x-x-----------0----------------------|

e|--2----2--0---0--------0--------0----------------------|
B|--3----3--3---2--------0--------0----------------------|
G|--2----2--2---2--------2--(0)--(1)---------------------|
D|--0-----------2---2-2------0----2----------------------|
A|--------------0---0-0------0----2----------------------|
E|------------------x-x-----------0----------------------|


Verse 1:

  I'm going away...                      ...earth...

e|------------2----2--0---0-----------0-----0------------|
B|------------3----3--3---2-----------0-----0------------|
G|------------2----2--2---2-----2-----2----(1)-----------|
D|------------0-----------2-----2-----------2------------|
A|------------------------0-----0-----------2------------|
E|------------------------------x-----------0------------|

  I've got no ordinary...                ...worth...

e|------------2----2--0---0--------0--------0------------|
B|------------3----3--3---2--------0--------0------------|
G|------------2----2--2---2--------2--(0)---1------------|
D|------------0-----------2---2-2------0----2------------|
A|------------------------0---0-0------0----2------------|
E|----------------------------x-x-----------0------------|


Chorus 1:

      I get enough...  ...late...

e|--5---5------5---5------0-------------|
B|--5---5------5---5------0-------------|
G|--7---5------6---6------1-------------|
D|--7---7------7---7------2-------------|
A|--5---7------7---7------2-------------|
E|--5---5------5---5------0-------------|

  ..fall...            ...grazed...

e|--5---5------5---5------0-------------|
B|--5---5------5---5------0-------------|
G|--7---5------6---6------1-------------|
D|--7---7------7---7------2-------------|
A|--5---7------7---7------2-------------|
E|--5---5------5---5------0-------------|


Verse 2:

    I cannot let...                     ...earth...

e|------------2----2--0---0-----------0-----0------------|
B|------------3----3--3---2-----------0-----0------------|
G|------------2----2--2---2-----2-----2----(1)-----------|
D|------------0-----------2-----2-----------2------------|
A|------------------------0-----0-----------2------------|
E|------------------------------x-----------0------------|

  You've had enough...                   ...nerve...

e|------------2----2--0---0-----------0-----0------------|
B|------------3----3--3---2-----------0-----0------------|
G|------------2----2--2---2-----2-----2-----1------------|
D|------------0-----------2-----2-----------2------------|
A|------------------------0-----0-----------2------------|
E|------------------------------x-----------0------------|

e|-------------------|
B|-------------------|
G|-------------------|
D|--2h4--2h4--2r-----|
A|--2h4--2h4--2r-----|
E|-------------------|


Chorus 2:

     All of these...   ...straight...

e|--5---5------5---5------0-------------|
B|--5---5------5---5------0-------------|
G|--7---5------6---6------1-------------|
D|--7---7------7---7------2-------------|
A|--5---7------7---7------2-------------|
E|--5---5------5---5------0-------------|

  ..falling...         ...grazed...  

e|--5---5------5---5------0-------------|
B|--5---5------5---5------0-------------|
G|--7---5------6---6------1-------------|
D|--7---7------7---7------2-------------|
A|--5---7------7---7------2-------------|
E|--5---5------5---5------0-------------|


Verse 3:

     I've had two...                    ...hurt...

e|------------2----2--0---0-----------0-----0------------|
B|------------3----3--3---2-----------0-----0------------|
G|------------2----2--2---2-----2-----2-----1------------|
D|------------0-----------2-----2-----------2------------|
A|------------------------0-----0-----------2------------|
E|------------------------------x-----------0------------|

 I watch me crawling...                  ...worth...

e|------------2----2--0---0-----------0-----0------------|
B|------------3----3--3---2-----------0-----0------------|
G|------------2----2--2---2-----2-----2-----1------------|
D|------------0-----------2-----2-----------2------------|
A|------------------------0-----0-----------2------------|
E|------------------------------x-----------0------------|


Chorus 3:

      I know not...    ...say...

e|--5---5------5---5------0-------------|
B|--5---5------5---5------0-------------|
G|--7---5------6---6------1-------------|
D|--7---7------7---7------2-------------|
A|--5---7------7---7------2-------------|
E|--5---5------5---5------0-------------|

 ...falling...         ...grazed...

e|--5---5------5---5------0-------------|
B|--5---5------5---5------0-------------|
G|--7---5------6---6------1-------------|
D|--7---7------7---7------2-------------|
A|--5---7------7---7------2-------------|
E|--5---5------5---5------0-------------|


Verse 4:

  I watch you running....                ...worked...

e|------------2----2--0---0-----------0-----0------------|
B|------------3----3--3---2-----------0-----0------------|
G|------------2----2--2---2-----2-----2-----1------------|
D|------------0-----------2-----2-----------2------------|
A|------------------------0-----0-----------2------------|
E|------------------------------x-----------0------------|

  ...watch be falling...                ...called...

e|------------2----2--0---0-----------0-----0------------|
B|------------3----3--3---2-----------0-----0------------|
G|------------2----2--2---2-----2-----2-----1------------|
D|------------0-----------2-----2-----------2------------|
A|------------------------0-----0-----------2------------|
E|------------------------------x-----------0------------|


Chorus 4 (play 4 times):

     All of these...   ...strange...

e|--5---5------5---5------0-------------|
B|--5---5------5---5------0-------------|
G|--7---5------6---6------1-------------|
D|--7---7------7---7------2-------------|
A|--5---7------7---7------2-------------|
E|--5---5------5---5------0-------------|

 ...falling...         ...grazed...

e|--5---5------5---5------0-------------|
B|--5---5------5---5------0-------------|
G|--7---5------6---6------1-------------|
D|--7---7------7---7------2-------------|
A|--5---7------7---7------2-------------|
E|--5---5------5---5------0-------------|
comments
We did not receive enough feedback on this tab! Please rate:
print report bad tab
1 2 3 4 5
I want to post or [tab]
guest
You may want to rate the tab now too:
select rating
Please do not post tabs as comments. Select "correction" instead!