Oops, an error
Loading. Please wait.

Family Disease Tab

version 1
version 1

Intro

Whole song

Interactive

2,226 views 1 this week
1 commentread comment
1 2 3 4 5
3 more votes to show rating
add to favorites
launch autoscroll
font size
0
reset
how to read this tab
guitar tuner
Autoscroll
slow
fast
+/-
esc
set tempo
stop
Help us to improve Ultimate-Guitar.com Take our survey!
×
Author
Tabbed by:trey hopkins
Email:try tapping on this one, im just putting up little things ive figured out on 
new album. i hope im helping.hah if not im sorry
b=bend
Tuning:

e|-----------------------------------------------------------------------------|
B|-----------------------------10b---------------------------------------------|
G|---7-0-3-0-7-0-7-2-0-0-2-0---------------------------------------------------|
D|-----------------------------------------------------------------------------|
A|-----------------------------------------------------------------------------|
E|-----------------------------------------------------------------------------|
Suggest correction
Give kudos to tab author, rate the tab!
1 2 3 4 5
comments
print report bad tab
1 comment total.
0 reply
kylebrogly 10 Jun 24, 2014 09:41 PM

This is a bit more difficult, but the notes are correct.

() = right hand tap
[] = left hand tap
/ = slide
h = hammer
p = pull
br = bend/return (half step)
-------------------------------------------------------
-----------------------------------------(8)br---------
----------(10)p5-(10)p5p0-----------------------[5]----
-(10)p3h6-------------------------(10)p3---------------
---------------------------[3]/6----------------------
-------------------------------------------------------

guest
You may want to rate the tab now too:
select rating
Wanna post a correction for this tab? Suggest correction