Oops, an error
Loading. Please wait.

The Tide Tab

6,575 views 3 this week
11 commentsread comments
1 2 3 4 5
excellent!
x 3
add to favorites
launch autoscroll
font size
0
reset
how to read this tab
guitar tuner
Tab Pro tools
  • play this tab
  • loop segment
  • change instrument
  • show fretboard
  • metronome
×
Best way to learn
"The Tide"
Autoscroll
slow
fast
+/-
esc
set tempo
stop
Contributor
Tuning: Drop C#

I'm not sure how the intro goes so i'm not going to put it :]


(0:03-0:14)
And his face shown like the sun...           
[----------------][-------------][----------------]
[----------------][-------------][----------------]
[1414-1010-1212-9][-77-6--10107-][1414-1010-1212-9]   
[----------------][-------8-8-5-][----------------]
[1212-8-8--1010-7][-55-4--8-8-5-][1212-8-8--1010-7]
[----------------][-------8-8-5-][----------------]


(0:15-0:18)
[---------------------]
[---------------------]
[---------------------]
[0--0-0-0000-0--0-0-00]
[0--0-0-0000-0--0-0-00]
[0--0-0-0000-0--0-0-00]

(0:19-0:32)
Tide has come...
[--------------------------][---------------------------]
[--------------------------][------------------------5-8]
[--------------------------][----------------------5----]
[0--0-0-0000--0--0-0-0-00-0][0--0-0-0000--0--0-0-0------]  (x2)
[0--0-0-0000--0--0-0-0-00-0][0--0-0-0000--0--0-0-0------]
[0--0-0-0000--0--0-0-0-00-0][0--0-0-0000--0--0-0-0------]

(0:33-0:35)
[--------------------]
[---5-8----------8---]
[-5------(x3)----5---]
[--------------------]
[--------------------]
[--------------------]

(0:36-1:07)
Take us away..........
[------------------------------------------][--------------------]
[------------------------------------------][--------------------]
[10-10-10-10--9-9-9-9--12-12-12-12--7-7-7-7][-7--8-7----7--8-7---]
[------------------------------------------][--------5---------5-]  (x4)
[-8--8--8--8--7-7-7-7--10-10-10-10--5-5-5-5][--------------------]
[------------------------------------------][--------------------]


(1:08-1:21)
[--------------------]
[--------------------]
[-7--8-7----7--8-7---]
[--------5---------5-] (x4)
[--------------------]
[--------------------]

(1:22-1:23)

[-----]
[-----]
[-----]
[--0--]
[--0--]
[--0--]


I'm still figuring out the rest. I'll ubdate it in a couple days.
comments
We did not receive enough feedback on this tab! Please rate:
print report bad tab
1 2 3 4 5
11 comments total. Showing first comments.
0 reply
ephemete wrote on April 6 2009, 08:39 pm

Thanks for this tab dude.
I figured some of it out. Someone do the rest!

(1:22-1:36)
[-----------------------------------]
[-----------------------------------]
[-----------------------------------] (x2)
[-----------------------------------] (this is the bass line)
[-----------------------------------] (very ambient guitar here)
[--0-(x16)--8-(x8)--5-(x4)--10-(x4)-]

(1:36-1:52)
[-0~----------------]
[-6~----------------]
[-9~---5~---10~-12~-] (x2)
[-0~----------------]
[------3~---8~--10~-]
[-------------------]

(1:52-2:28)
[----------------------------------]
[----------------------------------]
[-10-----9-----12-----7-----5------]
[---(x8)--(x8)---(x8)--(x4)--(x4)--] (repeat many times)
[--8-----7-----10-----5-----3------] (count it yourself, it's easy)
[----------------------------------]

0 reply
ephemete wrote on April 6 2009, 08:42 pm

I'm sorry, in that middle part I meant:

(1:36-1:52)
[-0~----------------]
[-6~----------------]
[-9~---7~---10~-12~-] (x2)
[-0~----------------]
[------5~---8~--10~-]
[-------------------]

0 reply
ephemete wrote on April 6 2009, 10:25 pm

Also, at 0:36-1:07
Instead of this: I think you meant this:
[--------------------] [----------------------]
[--------------------] [----------------------]
[-7--8-7----7--8-7---] [----------------------]
[--------5---------5-] [--7-8--7----7-8--7----]
[--------------------] [---------5---------5--]
[--------------------] [----------------------]

I want to post or [tab]
guest
You may want to rate the tab now too:
select rating
Please do not post tabs as comments. Select "correction" instead!