Oops, an error
Loading. Please wait.

Amputee Tab

3,729 views 1 this week
1 commentread comment
1 2 3 4 5
accurate
x 4
add to favorites
launch autoscroll
font size
0
reset
how to read this tab
guitar tuner
Tab Pro tools
  • play this tab
  • loop segment
  • change instrument
  • show fretboard
  • metronome
×
Best way to learn
"Amputee"
Autoscroll
slow
fast
+/-
esc
set tempo
stop
Contributor
Difficulty
intermediate
Song-	Amputee

Band-	Oceansize

Album-	Effloresce

Tabbed- Jordie -2007

Tuning- Standard D: DGCFAD


/Tremolo
()Used sometimes


Intro 0:00-0:28
-----

Guitar 1 (distorted wah delay) Mike or Gamb but I think gamblers doing the Wahy thing

D|-----------------------|
A|-12////////-15////////-|
F|-----------------------|
C|-----------------------|
G|-----------------------|
D|-----------------------|

D|------------------------|
A|-12////-8////-5////////-|
F|------------------------|
C|------------------------|
G|------------------------|
D|------------------------|

D|-----------------------|
A|-12////////-15////////-|
F|-----------------------|
C|-----------------------|
G|-----------------------|
D|-----------------------|

D|------------------------|
A|-12////-8////-5////////-|
F|------------------------|
C|------------------------|
G|------------------------|
D|------------------------|

______________________________
Guitar 2 (Distorted) (Steves)

				      -
D|------------------------           ---|
A|------------------------           ---|
F|------------------------           ---|
C|-16------19-------------           ---|
G|-14-(x8)-17-(x8)--------         -----|
D|------------------------         -----|
				      | x2
D|----------------------------------- |
A|----------------------------------- |
F|----------------------------------- |
C|-16------12------9------9-xx-9-x-9- |
G|-14-(x8)-10-(x8)-7-(x4)-7-xx-7-x-7- |
D|----------------------------------- |
				      |
_______________________________       -

I suggest some:

D|-0-0-0-0-
PM
as it goes into the verse



1st Verse 0:28-0:55
---------

Guitar 1 (distorted) Steve's guitar


D|------------------------|
A|------------------------|
F|-9--9-9-9--9--9-9-9-----|
C|-9--9-9-9--9--9-9-9-----|
G|-7--7-7-7--7--7-7-7-----|x3
D|------------------------|


D|-------------------------|
A|-------------------------|
F|-9--9-9-9--9--9b---------|
C|-9--9-9-9--9--9b---------|
G|-7--7-7-7--7--7b---------|x1
D|-------------------------|

D|------------------------|
A|------------------------|
F|-9--9-9-9--9--9-9-9-----|
C|-9--9-9-9--9--9-9-9-----|
G|-7--7-7-7--7--7-7-7-----|x3
D|------------------------|

D|-------------------------|
A|-------------------------|
F|-9--9-9-9--9--9b---------|
C|-9--9-9-9--9--9b---------|
G|-7--7-7-7--7--7b---------|x1
D|-------------------------|


I think at some point this variates to this: (BUT I'M NOT SURE)
D|------------------------|
A|------------------------|
F|-7--7-7-7--7--7-7-7-----|
C|-7--7-7-7--7--7-7-7-----|
G|-5--5-5-5--5--5-5-5-----|x1
D|------------------------|



1st Chorus 0:55-1:24
----------

Guitar 1 (distorted wah delay)

D|---------------------------------------------|
A|-12////////-15////////-18////////-19////////-|
F|---------------------------------------------|
C|---------------------------------------------|
G|---------------------------------------------|
D|---------------------------------------------| x3

 ________________________________________
|Guitar 2 (distorted)
|
|D|---------------------------------|
|A|---------------------------------|
|F|-7------11-------14------16------|
|C|-7------11-------14------16------|
|G|-5-(x8)-9--(x8)--12-(x8)-14-(x8)-|
|D|---------------------------------|
|________________________________________



Chorus Exit 1:24-1:38
-----------


D|-----------------------------------|
A|-12////-15////-13//// 12//// 8////-|
F|-----------------------------------|
C|-----------------------------------|
G|-----------------------------------|
D|-----------------------------------|

D|----------------------|
A|-12////-8////-5//////-|
F|----------------------|
C|----------------------|
G|----------------------|
D|----------------------|
______________________________
Guitar 2 (Distorted) (Steves)

				      -
D|------------------------           ---|
A|------------------------           ---|
F|------------------------           ---|
C|-16------19-------------           ---|
G|-14-(x8)-17-(x8)--------         -----|
D|------------------------         -----|
				      | x2
D|----------------------------------- |
A|----------------------------------- |
F|----------------------------------- |
C|-16------12------9------9-xx-9-x-9- |
G|-14-(x8)-10-(x8)-7-(x4)-7-xx-7-x-7- |
D|----------------------------------- |
				      |
_______________________________       -




2nd Verse 1:38-2:05
---------

Guitar 1 (distorted)

D|------------------------|
A|------------------------|
F|-7--7-7-7--7--7-7-7-----|
C|-7--7-7-7--7--7-7-7-----|
G|-5--5-5-5--5--5-5-5-----|x3
D|------------------------|

D|------------------------|
A|------------------------|
F|-7--7-7-7--7--7b--------|
C|-7--7-7-7--7--7b--------|
G|-5--5-5-5--5--5b--------|x1
D|------------------------|

D|------------------------|
A|------------------------|
F|-7--7-7-7--7--7-7-7-----|
C|-7--7-7-7--7--7-7-7-----|
G|-5--5-5-5--5--5-5-5-----|x3
D|------------------------|

D|------------------------|
A|------------------------|
F|-7--7-7-7--7--7b--------|
C|-7--7-7-7--7--7b--------|
G|-5--5-5-5--5--5b--------|x1
D|------------------------|



2nd Chorus: 2:05- 3:01
-----------

Guitar 1 (distorted wah delay)
				_
D|-----------------------------	|
A|-12////-15////-18////-19////-	|
F|-----------------------------	|
C|-----------------------------	|
G|-----------------------------	|
D|----------------------------- |
				| x2
D|-----------------------------	|
A|-12////-15////-17////-19////-	|
F|-----------------------------	|
C|-----------------------------	|
G|-----------------------------	|
D|----------------------------- |
				_

 ________________________________________
|Guitar 2 (distorted)
|
|D|---------------------------------|
|A|---------------------------------|
|F|-7------11-------14------16------|
|C|-7------11-------14------16------|
|G|-5-(x8)-9--(x8)--12-(x8)-14-(x8)-|
|D|---------------------------------| (Continue for rest of chorus)
|________________________________________

at 2:33 Guitar 3 comes in with unknown riff

D|-----------------------------|
A|-12////-15////-17////-19////-|
F|-----------------------------|
C|-----------------------------|
G|-----------------------------|
D|-----------------------------| x3


D|-----------------------------|
A|-----------------------------|
F|-----------------------------|
C|-----------------------------|
G|-----------------------------|
D|-12slidedown-----------------|



Build up 1: 3:01-4:04
----------
Guitar 1 (clean Acoustic)


D|----------------------------------------|
A|----------------------------------------|
F|-12-12-12-x-11-11-x-9-9-x-9-9-9-9-9-9-9-|
C|-12-12-12-x-11-11-x-9-9-x-9-9-9-9-9-9-9-|
G|-10-10-10-x-9--9--x-7-7-x-7-7-7-7-7-7-7-|
D|----------x-------x-----x---------------|


(This is the were not the same although we share a name part, it then goes back to the original riff)
D|------------------------|
A|------------------------|
F|-7-7-7-7-9-9-9-9--------|
C|-7-7-7-7-9-9-9-9--------|
G|-5-5-5-5-7-7-7-7--------|
D|------------------------|


This changes to this

D|------------------------|
A|------------------------|
F|-9-9-9-9-5-5-5-5--------|
C|-9-9-9-9-5-5-5-5--------|
G|-7-7-7-7-3-3-3-3--------|
D|------------------------|


___________________________________________
|Guitar 2: Clock style riff (Mike) 3:16
|
|D|----------------------|
|A|-12-15-17-15----------|
|F|----------------------|
|C|----------------------|
|G|----------------------|
|D|----------------------| Alot of times
|____________________________________________

Build up 2: 4:04-4:32
----------

D|-----------------------------------|
A|-12////-15////-13//// 12//// 8////-|
F|-----------------------------------|
C|-----------------------------------|
G|-----------------------------------|
D|-----------------------------------|

D|-----------------------------------|
A|-12////-15////-13//// 12//// 8////-|
F|-----------------------------------|
C|-----------------------------------|
G|-----------------------------------|
D|-----------------------------------|

D|-----------------------------------|
A|-12////-15////-13//// 12//// 8////-|
F|-----------------------------------|
C|-----------------------------------|
G|-----------------------------------|
D|-----------------------------------|


D|------------------------|
A|-12////-15////-5//////--|
F|------------------------|
C|------------------------|
G|------------------------|
D|------------------------|



THEN THE FINAL CHORUS 4:32-End
---------------------
________________________________________
|Guitar 2
|
|D|---------------------------------|
|A|---------------------------------|
|F|-7------11-------14------16------|
|C|-7------11-------14------16------|
|G|-5-(x8)-9--(x8)--12-(x8)-14-(x8)-|
|D|---------------------------------| (Continue till the end)
|________________________________________

Guitar 1

D|-----------------------------|
A|-12////-15////-18////-19////-|
F|-----------------------------|
C|-----------------------------|
G|-----------------------------|
D|-----------------------------|

D|-----------------------------|
A|-12////-15////-17////-19////-|
F|-----------------------------|
C|-----------------------------|
G|-----------------------------|
D|-----------------------------|

D|-----------------------------|
A|-12////-15////-18////-19////-|
F|-----------------------------|
C|-----------------------------|
G|-----------------------------|
D|-----------------------------|

D|-----------------------------|
A|-12////-15////-17////-19////-|
F|-----------------------------|
C|-----------------------------|
G|-----------------------------|
D|-----------------------------|

Guitar 3 comes in again

D|-----------------------------|
A|-12////-15////-18////-19////-|
F|-----------------------------|
C|-----------------------------|
G|-----------------------------|
D|-----------------------------|

D|-----------------------------|
A|-12////-15////-17////-19////-|
F|-----------------------------|
C|-----------------------------|
G|-----------------------------|
D|-----------------------------|

Carry on doing that until


D|-----------------------------|
A|-----------------------------|
F|-----------------------------|
C|-----------------------------|
G|-----------------------------|
D|-12slidedown-----------------|

THE END
comments
print report bad tab
1 comment total.
0 reply
sottpwn wrote on September 10 2007, 04:31 pm

Flawless...Mike would be proud.

I want to post or [tab]
guest
You may want to rate the tab now too:
select rating
Please do not post tabs as comments. Select "correction" instead!