Oops, an error
Loading. Please wait.

Commemorative 9 11 T-Shirt Tab

3,717 views 9 this week
2 commentsread comments
1 2 3 4 5
accurate
x 4
add to favorites
launch autoscroll
font size
0
reset
how to read this tab
guitar tuner
Autoscroll
slow
fast
+/-
esc
set tempo
stop
Help us to improve Ultimate-Guitar.com Take our survey!
×
Author
-------------------------------------------------------------------------------
                             Commemorative 9/11 T-Shirt - Oceansize
-------------------------------------------------------------------------------
Tabbed by: Freedom Fighter (Gareth)
Email: paranoid-android1@hotmail.com

Tuning: Standard

e|---------------------8-----------------------------------------------------|
B|--10---10---10----8-----10-------------------------------------------------|
G|-----7----7----7-----------------------------------------------------------|
D|---------------------------------------------------------------------------|
A|---------------------------------------------------------------------------|
E|---------------------------------------------------------------------------|
This seems to chime out through the whole song. Give it some delay, reverb, and some 
to achive the simmilar sound.

e|-------------------------------------------------------------------------------|
B|-------------------------------------------------------------------------------|
G|---7^--------------------------------------------------------------------------|
D|-------------------------------------------------------------------------------|
A|-------------------------------------------------------------------------------|
E|-------------------------------------------------------------------------------|
Very quietly with a volume pedal this is done in the background. Volume up when it's 
volume down when it isn't.

I'll probably add more as I go along. It's a long song and working out all the parts are difficult.
Suggest correction
What's this?
You can suggest a correction to this tab. Community and Mods will review your correction and vote to approve or reject it.
comments
print report bad tab
2 comments total.
0 reply
sottpwn 342 wrote on February 13 2008, 06:45 am

It's in Drop C...other than it's pretty much correct.

0 reply
alaconsulto 11 wrote on February 17 2009, 05:20 pm

There's a lot more going on than the main repetitive melody, Gambler is making all sorts of abstract background noises throughout the beginning until he starts playing a melody similar to the bassline. Steven and Mike sound like they're both playing the main melody until the song gets heavier, from there on out they alternate between continuing the main melody and their own assortments of solos and power chordy things. Gambler switches from guitar to organ somewhere around the line "it comes as no surprise...", then comes the No Tomorrow-esque ending with mike's weird chords, something like

(bearing in mind he's probably in drop C)
e-3----3----3--3--1---3---3----3--1
B-3----3----3--3--3---3---3----3--3
G-0----0----0--0--0---0---0----0--0 and so on

I would really appreciate it if someone knew the real rhythm of these chords, as this is the only thing keeping my band from covering an all out 9/11=>familiar set.

guest
You may want to rate the tab now too:
select rating
Please do not post tabs as comments. Select "correction" instead!