Oops, an error
Loading. Please wait.

Long Forgotten Tab

34 views 1 this week
no commentswrite comment
1 2 3 4 5
3 more votes to show rating
add to favorites
launch autoscroll
font size
0
reset
how to read this tab
guitar tuner
Autoscroll
slow
fast
+/-
esc
set tempo
stop
Help us to improve Ultimate-Guitar.com Take our survey!
×
Author
There is probably an easier tuning to play this with, but I'm not a musician by any standard.
Will finish later, this takes a long time. Also know the claw but that will take longer.
Kkunkar, Jacob M, onlytwin@outlook.com

D Standard (probably different, email me corrections)

[Intro]

Steve Durose

D|-7-------7--------------------------------------------------------------------|
A|-----5-------5----------------------------------------------------------------|
F|-7---7---7---7----------------------------------------------------------------|
C|---4---4---4---4--------------------------------------------------------------|
G|------------------------------------------------------------------------------|
D|------------------------------------------------------------------------------|

Mike Vennart (tremolo)

D|-----------------------------------------------------------------------------|
A|--10-------------------------------------------------------------------------|
F|--14-------------------------------------------------------------------------|
C|--12-------------------------------------------------------------------------|
G|-----------------------------------------------------------------------------|
D|-----------------------------------------------------------------------------|


[Verse]

Steve Durose

D|-7-------7-------7-------7-------5-------5-------5-------5--------------------|
A|-----5-------5-------5-------5-------5-------5-------5-------5----------------|
F|-7---7---7---7---7---7---7---7---7---7---7---7---7---7---7---7----------------|
C|---4---4---4---4---4---4---4---4---4---4---4---4---4---4---4------------------|
G|------------------------------------------------------------------------------|
D|------------------------------------------------------------------------------|

Mike Vennart

e|---------------------------------------------------------------------------|
B|---------------------------------------------------------------------------|
G|-6-------6-------6-------6-------6-------6-------6-------6-----------------|
D|---5-------5-------5-------5-------0-------0-------0-------0---------------|
A|-----5-------5-------5-------5-------4-------4-------4-------4-------------|
E|---------------------------------------------------------------------------|

Richard Ingram

D|---------------------------------------------------------------------------|
A|---------------------------------------------------------------------------|
F|---6---7-6-----------------6---7-6-----7-6-2-------6-----------------------|
C|---------------------------------------------2-4-7-------------------------|
G|-5-----------------------5---5-------5-------------------------------------|
D|---------------------------------------------------------------------------|

D|-----------------------------------5---------------------------------------|
A|---------------------------------5--5--------------------------------------|
F|---6---7-6-----------------7-6-7-------------------------------------------|
C|---------------------------------------------------------------------------|
G|-5---5-----5-------------5-------------------------------------------------|
D|---------------------------------------------------------------------------|

Suggest correction
Give kudos to tab author, rate the tab!
1 2 3 4 5
comments
print report bad tab
guest
You may want to rate the tab now too:
select rating
Wanna post a correction for this tab? Suggest correction