Oops, an error
Loading. Please wait.

New Pin Tab

version 1
version 1

Whole song

Interactive

2,176 views 1 this week
3 commentsread comments
1 2 3 4 5
2 more votes to show rating
add to favorites
launch autoscroll
font size
0
reset
how to read this tab
guitar tuner
Autoscroll
slow
fast
+/-
esc
set tempo
stop
Help us to improve Ultimate-Guitar.com Take our survey!
×
Author
Difficulty
novice
OK this is my first ever tab, let alone posted on the internet... Anyway I tabbed it on 
out of tune acoustic, so it may be out a bit, but should be alright


Tuning OPEN D (although it could of course be played in standard)

Verse

1|--------------------------------------|
2|-----------7--------------------7-----|
3|------3------7------------9-------7---|
4|---3-----------9--------9-----------9-|
5|-5--------------------7---------------|
6|--------------------------------------|


Chorus
1|-----------|
2|-----------|
3|--7----6---|
4|--5----4---|
5|--5----4---|  x2
6|--5----4---|

1|-------------------|
2|-------------------|
3|--7---9---4--------|
4|--5---9---2--------|
5|--5---9---2--------|
6|--5---7---2--------|
Suggest correction
Give kudos to tab author, rate the tab!
1 2 3 4 5
comments
print report bad tab
3 comments total.
0 reply
A music fan 112 Dec 22, 2006 04:39 PM

not correct...

0 reply
crasp 52 Jan 03, 2007 07:43 PM

yeah i just roughly made this up one night by accident, thought id post it

i also sent loads of emails trying to change it to DROP d instead of OPEN, but obviously they didnt read them.

0 reply
crasp 52 Jan 03, 2007 07:44 PM

and the chords are wrong way round...

this bit should be..

1|--------------------------------------|
2|-----------7--------------------7-----|
3|------5------7------------9-------7---|
4|---5-----------9--------9-----------9-|
5|-3--------------------7---------------|
6|--------------------------------------|

guest
You may want to rate the tab now too:
select rating
Wanna post a correction for this tab? Suggest correction