Oops, an error
Loading. Please wait.

Ornament The Last Wrongs Tab

version 1
version 1

Intro

Whole song

1,167 views 1 this week
4 commentsread comments
1 2 3 4 5
1 last vote to show rating
add to favorites
launch autoscroll
font size
0
reset
how to read this tab
guitar tuner
Autoscroll
slow
fast
+/-
esc
set tempo
stop
Help us to improve Ultimate-Guitar.com Take our survey!
×
Author
Difficulty
Tuning
novice
D A D G B E
-------------------------------------------------------------------------------
                      Ornament/ The last wrongs - Oceansize
-------------------------------------------------------------------------------
Tabbed by: Ben Hough    
Email: ben_hough@hotmail.co.uk

Tuning: drop D

e|-----------------------------------------------------------|
B|-----------------------------------------------------------|
G|------4-3---5--------4-3---5---------4-3---5-------7-5---2-|
D|----3-----3--------3-----3---------3-----3-------0-----0---|
A|--3--------------3---------------3-------------0-----------|
D|3---------3----3---------3-----3---------3---0---------3---|




===============================================================================
Suggest correction
Give kudos to tab author, rate the tab!
1 2 3 4 5
comments
print report bad tab
4 comments total. Showing first comments.
0 reply
tombelger 52 Jun 25, 2007 03:38 PM

|----------------
B|---------------
G|------4- two not 3---
D|----3-----
A|--3-------
D|3--------

0 reply
tombelger 52 Jun 25, 2007 03:38 PM

The rest of it please!?

0 reply
Mon the Biffy 125 Jun 26, 2007 04:07 PM

Ben, in all truth this is a bit poor. I will show you how it is done.

guest
You may want to rate the tab now too:
select rating
Wanna post a correction for this tab? Suggest correction