Oops, an error
Loading. Please wait.

Ornamentthe Last Wrongs tab

4,423 views 1 this week
6 commentsread comments
1 2 3 4 5
x 4
add to favorites
×
Save as Personal and add changes to this tab that will be seen only by you. Learn more ›
×
You can save this tab as Personal to edit and correct it or add notes. All changes will be seen only by you. Learn more »
launch autoscroll
font size
0
reset
how to read this tab
guitar tuner
edit
Autoscroll
slow
fast
+/-
esc
set tempo
stop
Tuning: DADGBe

e|----------------------------|
B|----------------------------|
G|---------4--2---------/5~---|     X3
D|-------3--------------------|
A|-----3---------0------------|
D|---3------------------------|



e|-------------------------|
B|-------------------------|
G|---------7--5------------|
D|------0------------7-----|
A|----0--------------------|
D|--0------------/8--------|

At the end of this bit ^^.

Tremelo
E |-----------------------|
B|--666666666666666-----|
G|-----------------------|
D|-----------------------|
A|-----------------------|
D|-----------------------|

When it starts again, tremelo:


Tremelo:
e|----------------------------|
B|---666666666----555555555-|
G|---------------------------|        
D|---------------------------|
A|---------------------------|
D|---------------------------|

Then:

Tremelo:
e|-------------------------------------------|
B|--666666666---555555555---88888888888---|
G|------------------------------------------|
D|------------------------------------------|
A|------------------------------------------|
D|------------------------------------------|

e|---------------------------------------------------------------------------|
B|--6666666666-------------10 10 10 10 10 10 10 ----66666666666666-888888---|
G|---------------------------------------------------------------------------|
D|---------------------------------------------------------------------------|
A|---------------------------------------------------------------------------|
D|---------------------------------------------------------------------------|


e|--888888888888-----1212121212 ------|
B|-------------------------------------|
G|-------------------------------------|
D|-------------------------------------|
A|-------------------------------------|
D|-------------------------------------|

e|--121212121212----101010101--------------------------|
B|------------------------------11-11-11-11-11-11-11----|
G|-------------------------------------------------------|
D|-------------------------------------------------------|
A|-------------------------------------------------------|
D|-------------------------------------------------------|

The last two lines are repeated until heavy bit.

  


Then                Heavy
e|------------------0-0-0-0-0-0-0---|
B|------------------1-1-1-1-1-1-1---|
G|---------4--2-----2-2-2-2-2-2-2---|  Play twice.
D|-------3----------2-2-2-2-2-2-2---|
A|-----3------------0-0-0-0-0-0-0---|
D|---3------------------------------|

Then

e|----------------0-0-0-----------------5-5-5-5-5----------------|
B|----------------1-1-1-----------------6-6-6-6-6----------------|
G|---------4--2---2-2-2--4-4-4---5-5-5--7-7-7-7-7--1010101010--| 
D|-------3--------2-2-2--4-4-4---5-5-5--7-7-7-7-7--1010101010--|
A|-----3----------0-0-0--2-2-2---3-3-3--5-5-5-5-5--8-8-8-8-8----|
D|---3------------------------------------------------------------|

All repeated.

Then

one guitar plays

e|----------------------------------------|
B|----------------------------------------|
G|--9\--5-7---10~------9------------------|
D|-----------------------10--7--10~-------|
A|----------------------------------------|
D|----------------------------------------|

e|--------------------------------------------|
B|--------------------------------------------|
G|-10--9------7---10~-------12--10--9--9------|
D|--------10----------------------------------|
A|--------------------------------------------|
D|--------------------------------------------|

Repeated until this is played again

e|------------------0-0-0-0-0-0-0---|
B|------------------1-1-1-1-1-1-1---|
G|---------4--2-----2-2-2-2-2-2-2---|  Play twice.
D|-------3----------2-2-2-2-2-2-2---|
A|-----3------------0-0-0-0-0-0-0---|
D|---3------------------------------|

Then

e|----------------0-0-0-----------------5-5-5-5-5----------------|
B|----------------1-1-1-----------------6-6-6-6-6----------------|
G|---------4--2---2-2-2--4-4-4---5-5-5--7-7-7-7-7--1010101010--| 
D|-------3--------2-2-2--4-4-4---5-5-5--7-7-7-7-7--1010101010--|
A|-----3----------0-0-0--2-2-2---3-3-3--5-5-5-5-5--8-8-8-8-8----|
D|---3------------------------------------------------------------|


Last bit

e|-------------------------------------|
B|-------------------------------------|
G|--7~---------------------------------|
D|--7~----10--7-----8~-----7--3--------|
A|--5~----10--7-----8~-----7--3--------|
D|--------10--7-----8~-----7--3--------|

e|-------------------------------------|
B|-------------------------------------|
G|--7~---------------------------------|
D|--7~----10--7-----8~-----7--10------|
A|--5~----10--7-----8~-----7--10------|
D|--------10--7-----8~-----7--10------|

e|-------------------|
B|-------------------|
G|--7---9--10--10---|
D|--7---9--10--10---|
A|--5---7---8---8---|
E|------------------|


High guitar bit.
Sounds something like this:

e|----------------------------8------8------6-----5-------|
B|--------10------10-----------10----10------6----6-6----|
G|-10-h12---10-h12---10-h12-----10----10----------7-----|
D|--------------------------------------------------------|
A|--------------------------------------------------------|
E|--------------------------------------------------------|

e|--6----6-----5----5-------|
B|---6----6-----6----6-6----|
G|----7----7----------5-----|
D|--------------------------|
A|--------------------------|
E|--------------------------|


Play till end with heavy bit. 






            
            
Suggest correction
Creating personal tab
Creating personal tab
You can edit any tab online and save it as your Personal.

You can edit, replace or remove any tab part or add personal notes – all changes will be seen only by you.

Personal tabs can be accessed anytime from any device, even offline.
Learn more »
comments
print report bad tab
6 comments total. Showing first comments.
0 reply
tombelger 52 Jun 27, 2007 08:50 AM

Gooood. But in this bit:

|----------------0-0-0-----------------5-5-5-5-5---1-1-1-1-1-1--|
B|----------------1-1-1-----------------6-6-6-6-6---3-3-3-3-3-3--|
G|---------4--2---2-2-2--4-4-4---5-5-5-7-7-7-7-7---3-3-3-3-3-3--|
D|-------3--------2-2-2--4-4-4---5-5-5-7-7-7-7-7---3-3-3-3-3-3--|
A|-----3----------0-0-0--2-2-2---3-3-3-5-5-5-5-5---1-1-1-1-1-1--|
D|---3-----------------------------------------------------------|

The last chord, swear it goes up to 10
10
8

0 reply
tombelger 52 Jun 27, 2007 08:51 AM

Allow it didnt print the spaces, i meant
G 10-10
G 10-10
A 8--8
D -----

0 reply
Mon the Biffy 125 Jun 27, 2007 09:40 AM

Good. Get the rest though and im not sure if the main thing plays open D.

guest
You may want to rate the tab now too:
select rating
Wanna post a correction for this tab? Suggest correction