Oops, an error
Loading. Please wait.

The Charm Offensive Tab

3,120 views 1 this week
2 commentsread comments
1 2 3 4 5
accurate
x 5
add to favorites
launch autoscroll
font size
0
reset
how to read this tab
guitar tuner
Autoscroll
slow
fast
+/-
esc
set tempo
stop
Help us to improve Ultimate-Guitar.com Take our survey!
×
Author
Difficulty
intermediate
-------------------------------------------------------------------------------
                             The Charm Offensive - Oceansize
-------------------------------------------------------------------------------
Tabbed by: Jeff Cameron
Email: jcameron99@gmail.com

Tuning: CGCFAD
Hey guys, this should help you get started figuring this song out.  Listen to the song
rhythm, and for any changes to the ends of phrases, as there are a few.  There’s a part
the middle where there’s just too much to decipher, but I’ve got most of the very 
parts in here.  Anyway, sorry about that.  Enjoy.

Riff 1 (intro)
d|---------------------------------------------------------------------------|
A|--------10-------------8------------3----------------0---------------------|
F|------------12------------10-----------5----------7------------------------|
C|----------------------------------------------7----------------------------|
G|----12-------------10------------5-----------------------------------------|
C|--0-------------0-------------0------------0-------------------------------|

Another guitar plays this under Riff 1 with some strange effects on it.
d|------------8-9-10-----------------8-9-10----------------------------------|
A|---------------------------------------------------------------------------|
F|---------------------------------------------------------------------------|
C|---------------------------------------------------------------------------|
G|---------------------------------------------------------------------------|
C|---------------------------------------------------------------------------|

Riff 2 (crunch riff)
Wah
d|---------------------------------------------------------------------------|
A|---------------------------------------------------------------------------|
F|---------------------------------------------------------------------------|
C|-----------------3---x-x-x-x---3-------------------------------------------|
G|----0---0--------3---x-x-x-x---3-------------------------------------------|
C|----0---0----h3------x-x-x-x---3-------------------------------------------|

Riff 2 tag
Not so sure about this, it sounds ok.
d|---------------------------------------------------------------------------|
A|---------------------------------------------------------------------------|
F|---------------------------------------------------------------------------|
C|--------------5------------------------------------------------------------|
G|-----5------------3--------------------------------------------------------|
C|---------3-----------------------------------------------------------------|

Riff 3 (prechorus)
d|---------------------------------------------------------------------------|
A|---------------------------------------------------------------------------|
F|---------------------17----------------------------------------------------|
C|---------------17--------15------------------------------------------------|
G|----0---17---------15------------------------------------------------------|
C|----0------15--------------------------------------------------------------|

Riff 4 (chorus)
Delay and some other stuff,
d|-------------------------------------0-----0-------------------------------|
A|-----------3p1-----------1-----3---3-----1---------------------------------|
F|----------------2p0----0-----0---5-----2-----------------------------------|
C|---------------------3-----5-----------------------------------------------|
G|---------------------------------------------------------------------------|
C|---------------------------------------------------------------------------|

Riff 4 alternate
d|-------------------------------------0-----0-------------------------------|
A|-----------3p1-----------1-----3---3-----1---------------------------------|
F|----2-----------2p0----0-----0---5-----2-----------------------------------|
C|--0---0--------------3-----5-----------------------------------------------|
G|---------------------------------------------------------------------------|
C|---------------------------------------------------------------------------|

Riff 5 (near the end)
d|------------------------------------------------------------------------------|
A|------------------------------------------------------------------------------|
F|------------------------------------------------------------------------------|
C|---0-------------3---5----10---7----------------------------------------------|
G|---0----5-3-0----3---5----10---7----------------------------------------------|
C|---0----------5--3---5----10---7----------------------------------------------|

Riff 5 harmony
d|---------------------------------------------------------------------------|
A|---------------------------------------------------------------------------|
F|---------------------------------------------------------------------------|
C|---0------------3---5----10---7--------------------------------------------|
G|---0---8-7-5-0--3---5----10---7--------------------------------------------|
C|---0------------3---5----10---7--------------------------------------------|

| /  slide up
| \  slide down
| h  hammer-on
| p  pull-off
| ~  vibrato
| +  harmonic
| x  Mute note
===============================================================================
Suggest correction
comments
print report bad tab
2 comments total.
0 reply
Amberience 10 wrote on June 8 2008, 10:41 am

Incorrect, Mike.

+2 reply
Patstrument 10 wrote on September 23 2009, 09:03 pm

Incorrect, Amberience.

Mike actually has a good portion of this song right.

Well done. I'm gunna try guitar pro-ing this myself.

guest
You may want to rate the tab now too:
select rating
Wanna post a correction for this tab? Suggest correction