Oops, an error
Loading. Please wait.

The Strand Tab

406 views 3 this week
no commentswrite comment
1 2 3 4 5
please rate
add to favorites
launch autoscroll
font size
0
reset
how to read this tab
guitar tuner
Autoscroll
slow
fast
+/-
esc
set tempo
stop
Help us to improve Ultimate-Guitar.com Take our survey!
×
Author
Difficulty
Tuning
novice
D G C F A D
Played clean.

Guitar starts at 2:19.

INTRO - Play once.

d|-------------5--5--5--5---3--3--3--3---1--1--------------------------|
A|3--3--3--3--------------------------------------4------3---3---3---3-|
F|-0--0--0--0---0--0--0--0---0--0--0--0---0--0--0---0--0---0---0---0---|
C|---------------------------------------------------------------------|
G|---------------------------------------------------------------------|
D|---------------------------------------------------------------------|

MAIN GUITAR LINE - Repeat for duration of song.

d|5--5--5--5---3--3--3--3---1--1--------------------------|
A|-----------------------------------4------3---3---3---3-|
F|-0--0--0--0---0--0--0--0---0--0--0---0--0---0---0---0---|
C|--------------------------------------------------------|
G|--------------------------------------------------------|
D|--------------------------------------------------------|

SOLO - Play 4 times at following (rough) timestamps. As ever, '~' = vibrato.

The 'solo' in the song is not played on guitar, but I'm sure with enough effects could
be made to sound close enough.

6:26 - 6:39
6:42 - 6:55
6:59 - 7:12
7:17 - 7:30

d|----------------------------------------------------|
A|10~~~-10-11-13-11-10-8~~~-8-10-11-10-8-6~~~-4~~-3~~-|
F|----------------------------------------------------|
C|----------------------------------------------------|
G|----------------------------------------------------|
D|----------------------------------------------------|

Update #1 - Bass Notes

Despite what this tab may suggest, a guitar has more than 3 strings (!!). If you so
desire you can add a bit of low end to proceedings, and you should because it sounds better
and is more interesting to play. Credit to UG user 'Gu1T@r_H3r0' for this update (AKA 
how to actually play the song).

d|-----------------------------------------------------------|
A|--10-10-10-10---8--8--8--8---6--6-----4------3---3---3---3-|
F|----0--0--0--0---0--0--0--0---0--0--0---0------0---0---0---|
C|-----------------------------------------------------------|
G|-----------------------------------------------------------|
D|10-10-10-10----8--8--8--8---6--6-----4-----3----3---3---3--|
Suggest correction
What's this?
You can suggest a correction to this tab. Community and Mods will review your correction and vote to approve or reject it.
comments
We did not receive enough feedback on this tab! Please rate:
print report bad tab
1 2 3 4 5
guest
You may want to rate the tab now too:
select rating
Please do not post tabs as comments. Select "correction" instead!