Oops, an error
Loading. Please wait.

Unfamiliar bass

version 2
version 2

Whole song

Interactive

143 views 1 this week
no commentswrite comment
1 2 3 4 5
3 more votes to show rating
add to favorites
×
Save as Personal and add changes to this tab that will be seen only by you. Learn more ›
×
You can save this tab as Personal to edit and correct it or add notes. All changes will be seen only by you. Learn more »
launch autoscroll
font size
0
reset
guitar tuner
edit
Autoscroll
slow
fast
+/-
esc
set tempo
stop
F|------------------------------------------------------------------------|
C|------------------------------------------------------------------------|
G|3----3----3----3----3----3----3----5-----------------------------------5|
D|------------------------------------0----0----0----0----0----0----0-----| x2

F|------------------------------------------------------------------------|
C|------------------------------------------------------------------------|
G|3----3----3----3--------------3----5-----------------------------------5|
D|--------------------3----3----------0----0----0----0----3----0----0-----| x2

============================================================

F|-------4----|     F|-------------------------------------|
C|---7-----5--|     C|---------5-----------------5---------|
G|0-----------|     G|-------------------------------------|
D|------------| x4  D|3-----------------3------------------|

F|----4-------4-0--|     F|----4------4---|
C|--2------2-------|     C|--2------2-----|
G|3------3---------|     G|3------3-------|
D|-----------------| x3  D|---------------|

============================================================ x 2

  during the laceration...         all you wanna do is cry...       last that realisation...
F|-------------------------------------------------------------------------------------------------|
C|-------------------------------------------------------------------------------------------------|
G|---------------------------------0---------------------------------------------------------------|
D|0-----------------------------------------------------------------3------------------------------|

    how quickly...
F|------4-------4-0--|     F|----4------4---|
C|----2------2-------|     C|--2------2-----|
G|--3------3---------|     G|3------3-------|
D|-------------------| x3  D|---------------|

  needs little explanation...        gonna take...
F|------------------------------------------------------------------------|
C|---------------------------------------------57-------------------------|
G|---------7----------------------------7---------------------------------|
D|0---------0------------------------5-------------------5----------------|

  ideas above our station...                    below the fog...
F|------------------------------------------| F|----4-------4-0--|     F|----4------4---|
C|---------74--5--------4---------2---------| C|--2------2-------|     C|--2------2-----|
G|-----------------------5---------3--------| G|3------3---------|     G|3------3-------|
D|3-----------------------------------------| D|-----------------| x3  D|---------------|

  when i see...
F|----------------------------------------------------|
C|----------------------------------------------------|
G|-----7----5----2----3----2----3----5----3--2--------|
D|0---------------------------------------------------|

  same face...
F|-------4----|     F|----4-------4-0--|     F|----4------4---|
C|---7-----5--|     C|--2------2-------|     C|--2------2-----|
G|0-----------|     G|3------3---------|     G|3------3-------|
D|------------| x4  D|-----------------| x3  D|---------------|

  sideways...
F|---0--------7------0-2--|      F|------------|     F|-------4----|
C|-------5-7-----5--------|      C|------------|     C|---7-----5--|
F|------------------------|      G|---7---7-5--|     G|0-----------|
D|3-----------------------|  x2  D|0-----0-----| x4  D|------------| x4

  same lie...
F|----4-------4-0--|     F|----4------4-----0--------7------0-2--|
C|--2------2-------|     C|--2------2------------5-7-----5-------|
G|3------3---------|     G|3------3------------------------------|
D|-----------------| x3  D|---------------3----------------------|  


F|----------------------------------------------|
C|----------------------------------------------|
G|-----7----5----2----3----2----3----5----3--2--|
D|0---------------------------------------------|

  when i see...
F|-------------------------------------------------|
C|-------------------------------------------------|
G|--------7----5----2----3----2----3----5----3--2--|
D|000000-------------------------------------------|

  when i see...
F|------------------------------------------------|
C|------------------------------------------------|
G|-------7----5----2----3----2----3----5----3--2--|
D|0-0-0-------------------------------------------|

  obsolete your voices...
F|------------------------------------------------------------------------|
C|------------------------------------7----7----7----7----7----7----7----7|
G|8----8----8----8----8----8----8----8------------------------------------|
D|------------------------------------------------------------------------| x2

F|-----10---------------10-------------------------------------------------------|
C|-----------10---------------10----8----107----------7---------7----------------|
G|8----------------8----------------------------10---------8---------10----8-----|
D|-------------------------------------------------------------------------------| x2

F|------------------------------------------------------------------------|
C|------------------------------------------------------------------------|
G|3----3----3----3----3----3----3----5-----------------------------------5|
D|------------------------------------0----0----0----0----0----0----0-----| x2

F|------------------------------------------------------------------------|
C|------------------------------------------------------------------------|
G|3----3----3----3--------------3----5-----------------------------------5|
D|--------------------3----3----------0----0----0----0----3----0----0-----| x2

  say that silence...
F|-----10---------------10-------------------------------------------------------|
C|-----------10---------------10----8----107----------7---------7----------------|
G|8----------------8----------------------------10---------8---------10----8-----|
D|-------------------------------------------------------------------------------| x2

  say that silence...
F|-----------------------------------------------------------------------|
C|-----------------------------------------------------------------------|
G|-----------------------------------------------------------------------|
D|1----1----1----1----1----1----1----15----5----5----5----5----5----5----| x2

  souls and windows...
F|--4--40--4--4-----7h9-------|
C|-2--2---2--2--75-5-----7-109|
G|3--3---3--3--5--7-----7-----|
D|---------------------5--7---| x2 

  needle and thread...
F|--------------------------------------------------------------------------------------|
C|-------------------------------7----9----10--------910--------12\2--------------------|
G|-------------------5----7---------------------------------------------------0----2----|
D|8--------78---------------------------------------------------------------------------|

  saw the seashore...
F|--4--40--4--4-----7h9------|
C|-2--2---2--2--75-5---777999|
G|3--3---3--3--5--7----------|
D|---------------------------| x4

  (10 not 1 & 0)
F|-----------------------------------------------------------------------------|
C|-------------0002222-------------------00022227779991010101010109101010101010|
G|3333332333333-------0002223333332333333--------------------------------------|
D|-----------------------------------------------------------------------------|

  (12 not 1 & 2)
F|--------------------------------------------------------------------------------------|
C|121212\2222-------------------0002222-------------------------------------------------|
G|-----------0002223333332333333-------0002223------3----3--3--3--33------3----3--33-3-3|
D|--------------------------------------------------------------------------------------|

            
            
Suggest correction
Creating personal tab
Creating personal tab
You can edit any tab online and save it as your Personal.

You can edit, replace or remove any tab part or add personal notes – all changes will be seen only by you.

Personal tabs can be accessed anytime from any device, even offline.
Learn more »
Give kudos to tab author, rate the tab!
1 2 3 4 5
comments
print report bad tab
guest
You may want to rate the tab now too:
select rating
Wanna post a correction for this tab? Suggest correction