Oops, an error
Loading. Please wait.

Walking In The Air Tab

718 views 1 this week
no commentswrite comment
1 2 3 4 5
please rate
add to favorites
launch autoscroll
font size
0
reset
how to read this tab
guitar tuner
Autoscroll
slow
fast
+/-
esc
set tempo
stop
Help us to improve Ultimate-Guitar.com Take our survey!
×
Author
For pretty much every section with octaves, you'll have to go by ear on how many 
times to play each one, it should be fairly simple though.

This is really just the main guitar work, there are plenty of small bits of added 
texture in the song not represented here.

Clean

e|---------------------------|
B|---------------------------|
G|-14---12----10----9--------|
D|-12---10----8-----7--------| x2 With delay
A|-12---10----8-----7--------|
D|-12---10----8-----7--------|


e|-0------------------------------------|
B|--3-----------------------------------|
G|---2--------9-10-9p10p9---------------|
D|----0---------------------12----------|
A|-----0-----------------12-------------|
D|------0-------------------------------|


e|----------------------------|
B|--15-15-13-13---------------|
G|14------------14------------|
D|----------------------------|
A|----------------------------|
D|----------------------------|

e|--------------------------|
B|---15-15-13-13------------|
G|14------------14--10-12---|
D|--------------------------|
A|--------------------------|
D|--------------------------|

e|18-17-15------------------|
B|---------15-18-17-15------|
G|--------------------------|
D|--------------------------| Trem picked
A|--------------------------|
D|--------------------------|

e|--------------------------|
B|--------------------------|
G|9-10-9p10p9---------------|
D|--------------12----------|
A|-----------12-------------|
D|--------------------------|

e|----------------------------|
B|--15-15-13-13---------------|
G|14------------14------------|
D|----------------------------|
A|----------------------------|
D|----------------------------|

e|------------------------------------------|
B|---15-15-13-13----------------------------|
G|14------------14--10-12------(10)-12-14-15|
D|------------------------------------------|
A|------------------------------------------|
D|------------------------------------------|

e|18-17-15------------------|
B|---------15-18-17-15------|
G|--------------------------|
D|--------------------------| Trem picked
A|--------------------------|
D|--------------------------|

e|----------------------------------|
B|13-11-13-11-10---8-10-8-10-8-6----|
G|----------------------------------|
D|----------------------------------|
A|----------------------------------|
D|----------------------------------|

e|----------------------------0-----|
B|-5-6-5-6-5-3-----------------3----|
G|---------------5-7-5-7-5-3----2---|
D|-------------------------------0--|
A|--------------------------------0-|
D|---------------------------------0|


Distortion

e|-----------------------------------|
B|-----------------------------------|
G|19-19-17-17-14-14-14-14-14-14------|
D|-----------------------------------| x2
A|17-17-15-15-12-12-12-12-12-12------|
D|-----------------------------------|

e|--------------------------|
B|--------------------------|
G|12---14--15---------------|
D|--------------------------|
A|10---12--13---------------|
D|--------------------------|

e|--------------------------|
B|--------------------------|
G|-15-14-12--7-10-9-7-------|
D|--------------------------|
A|-13-12-10--5-8--7-5-------|
D|--------------------------|

e|-----------------------------------|
B|-----------------------------------|
G|19-19-17-17-14-14-14-14-14-14------|
D|-----------------------------------| x2
A|17-17-15-15-12-12-12-12-12-12------|
D|-----------------------------------|

e|--------------------------|
B|--------------------------|
G|12---14--15---------------|
D|--------------------------|
A|10---12--13---------------|
D|--------------------------|

e|--------------------------|
B|--------------------------|
G|-15-14-12--7-10-9-7-------|
D|--------------------------|
A|-13-12-10--5-8--7-5-------|
D|--------------------------|

e|-------------------------------|
B|-------------------------------|
G|14-12-14-12-10----9-10-9-10-9-7|
D|-------------------------------|
A|-------------------------------|
D|-------------------------------|

Trem picked with wah
e|---------------------------------|
B|15-13-15-13-11---10-11-10-11-10-8|
G|---------------------------------|
D|---------------------------------|
A|---------------------------------|
D|---------------------------------|

e|---------------------------------------------|
B|---------------------------------------------|
G|---------------------------------------------|
D|0-12-0-0-15---0-12-0-0-13---0-12-0-0-15--0~~~|
A|0-12-0-0-15---0-12-0-0-13---0-12-0-0-15--0~~~|
D|0-12-0-0-15---0-12-0-0-13---0-12-0-0-15--0~~~|

Wall of feedback then...

Clean

e|-----------------------------------------|
B|-------------------------12-13-15--------|
G|-----------------12-14--------------16s12|
D|12-11-12-14---15-------------------------|
A|-----------------------------------------|
D|-----------------------------------------|

e|----------------------------------|
B|---------10-11-13---10s15----14s9-|
G|9-10-12---------------------------|
D|----------------------------------|
A|----------------------------------|
D|----------------------------------|

e|-----------------------------------------|
B|-------------------------12-13-15--------|
G|-----------------12-14--------------16s12|
D|12-11-12-14---15-------------------------|
A|-----------------------------------------|
D|-----------------------------------------|

e|----------------------------------|
B|---------10-11-13---10s15----14s9-|
G|9-10-12---------------------------|
D|----------------------------------|
A|----------------------------------|
D|----------------------------------|

Distortion

e|------------------------------------|
B|------------------------------------|
G|6-6-6-7-9-9-9--10-10-10-12-14-14-14-|
D|------------------------------------|
A|4-4-4-5-7-7-7--8--8--8--10-12-12-12-|
D|------------------------------------|

e|--------------------------|
B|--------------------------|
G|16-17-19--16-12-----------|
D|--------------------------|
A|14-15-17--14-10-----------|
D|--------------------------|

e|-----------------------------------------------|
B|-----------------------------------------------|
G|9-10-12---14-15-17---14-19----18-13-13-13-13-13|
D|-----------------------------------------------|
A|7-8--10---12-13-15---12-17----16-11-11-11-11-11|
D|-----------------------------------------------|

e|--------------------------|
B|--------------------------|
G|14-14-14-14-14-14-14------|
D|--------------------------| Wah
A|12-12-12-12-12-12-12------|
D|--------------------------|

e|-----------------------------------|
B|-----------------------------------|
G|19-19-17-17-14-14-14-14-14-14------|
D|-----------------------------------| x2
A|17-17-15-15-12-12-12-12-12-12------|
D|-----------------------------------|

e|--------------------------|
B|--------------------------|
G|12---14--15---------------|
D|--------------------------|
A|10---12--13---------------|
D|--------------------------|

e|--------------------------|
B|--------------------------|
G|-15-14-12--7-10-9-7-------|
D|--------------------------|
A|-13-12-10--5-8--7-5-------|
D|--------------------------|

e|-----------------------------------|
B|-----------------------------------|
G|19-19-17-17-14-14-14-14-14-14------|
D|-----------------------------------| x2
A|17-17-15-15-12-12-12-12-12-12------|
D|-----------------------------------|

e|--------------------------|
B|--------------------------|
G|12---14--15---------------|
D|--------------------------|
A|10---12--13---------------|
D|--------------------------|

e|--------------------------|
B|--------------------------|
G|-15-14-12--7-10-9-7-------|
D|--------------------------|
A|-13-12-10--5-8--7-5-------|
D|--------------------------|

End Riff

e|---------------------------------------------|
B|---------------------------------------------|
G|---------------------------------------------|
D|0-12-0-0-15---0-12-0-0-13---0-12-0-0-15~~~---|
A|0-12-0-0-15---0-12-0-0-13---0-12-0-0-15~~~---|
D|0-12-0-0-15---0-12-0-0-13---0-12-0-0-15~~~---|

e|----------------|
B|----------------|
G|----------------|
D|0-0-0-x-x-13-13-|
A|0-0-0-x-x-13-13-|
D|0-0-0-x-x-13-13-|

e|---------------------------------------------|
B|---------------------------------------------|
G|---------------------------------------------|
D|0-12-0-0-15---0-12-0-0-13---0-12-0-0-15~~~---|
A|0-12-0-0-15---0-12-0-0-13---0-12-0-0-15~~~---|
D|0-12-0-0-15---0-12-0-0-13---0-12-0-0-15~~~---|

e|----------------|
B|----------------|
G|----------------|
D|0-0-0-x-x-13-13-|
A|0-0-0-x-x-13-13-|
D|0-0-0-x-x-13-13-|

e|--------------------------|
B|--------------------------|
G|--------------------------|
D|0-12-0-0-15---0-12-0-0-13-| x7
A|0-12-0-0-15---0-12-0-0-13-|
D|0-12-0-0-15---0-12-0-0-13-|

As this plays, 2nd guitar trem picked with wah. (Kinda unsure about this part)

e|-------------------17--19---19^21|
B|9--11--14--16--19----------------|
G|---------------------------------|
D|---------------------------------|
A|---------------------------------|
D|---------------------------------|

e|-----------------------------------|
B|-----------------------------------|
G|-----------------------------------|
D|0-12-0-0-15---0-12-0-0-13-13-0~~~~~|
A|0-12-0-0-15---0-12-0-0-13-13-0~~~~~|
D|0-12-0-0-15---0-12-0-0-13-13-0~~~~~|

Fin

As always, mistakes/corrections, additions and comments on a postcard. This isn't 
perfect, but should give you enough of an idea for the song.
Suggest correction
Give kudos to tab author, rate the tab!
1 2 3 4 5
comments
print report bad tab
guest
You may want to rate the tab now too:
select rating
Wanna post a correction for this tab? Suggest correction