Oops, an error
Loading. Please wait.

Atrapado En La Red Tab

132 views 1 this week
no commentswrite comment
1 2 3 4 5
3 more votes to show rating
add to favorites
×
Save as Personal and add changes to this tab that will be seen only by you. Learn more ›
×
You can save this tab as Personal to edit and correct it or add notes. All changes will be seen only by you. Learn more »
save as personal
new!
launch autoscroll
font size
0
reset
how to read this tab
guitar tuner
Autoscroll
slow
fast
+/-
esc
set tempo
stop
INTRO

SOL
e|-3---------------3-|
B|-3---------------3-|
G|-0---------------0-| X2 A
D|-0---------------0-|
A|-2--0-2-3-2-0-2--2-|
E|-3---------------3-| 

e|-------------------------|
B|-------------------------|
G|-------------------------| B
D|-------------------------|
A|-0-2-3-2-0-------0-------|
E|-----------3-0-3---3-3---|

El momento llego ----------|A
y aunques estés en prisión |A

nada te impedirá hoy renacer. |B

Atrapado en la red -|A
sólo piensas romper |A

la muralla que encerró tus sueños |B

e|-----------------------|
B|-----------------------|
G|-----------------------|
D|-----------------------| BAJO
A|---------2-------------|
E|--3---3-----3---3------|

  -----DO---- LA
y en está quietud ----------------ACORDES

e|-----------------------|
B|-----------------------|
G|-----------------------|
D|-----------------------|
A|---------2-------------|
E|--3---3-----3---3------|


-----DO--- Mim
de esta soledad

e|-----------------------|
B|-----------------------|
G|-----------------------|
D|-----------------------|
A|---------2-------------|
E|--3---3-----3---3------|

-----DO--- LA
una noche más

e|-----------------------|
B|-----------------------|
G|-----------------------|
D|-----------------------|
A|---2-----3--2--0-------|
E|-----3-----------------|

MIm --DO- LA
cae sobre ti.

e|------------|
B|------------|
G|------------|
D|------------|
A|--0--2------|
E|--------3---|

SOL
e|---------------3-|
B|---------------3-|
G|---------------0-|X2
D|---------------0-|
A|--0-2-3-2-0-2--2-|
E|---------------3-|

e|------------------|
B|------------------|
G|------------------|
D|------------------|
A|-0-2-3-2-0--------|
E|-----------3-0----|

Fuerza tu corazón ---|A
contra la adversidad |A

pues asi nadie te detendrá esta vez. |B

Salvaje correrás ---|A
ya no te alcanzarán |A

embriagado de vida al ser libre |B

e|-----------------------|
B|-----------------------|
G|-----------------------|
D|-----------------------|
A|---------2-------------|
E|--3---3-----3---3------|

  -----DO---- LA
y en está quietud -- 

e|-----------------------|
B|-----------------------|
G|-----------------------|
D|-----------------------|
A|---------2-------------|
E|--3---3-----3---3------|

-----DO--- Mim
de esta soledad 

e|-----------------------|
B|-----------------------|
G|-----------------------|
D|-----------------------|
A|---------2-------------|
E|--3---3-----3---3------|

-----DO--- LA
una noche más

e|-----------------------|
B|-----------------------|
G|-----------------------|
D|-----------------------|
A|---2-----3--2--0-------|
E|-----3-----------------|

MIm --DO- LA
cae sobre ti.

---------DO---- Mim -----LA
Sé que puedes evitar el temor

-DO----- LA------ DO------- MIm
mientras cae la barrera del dolor

---------DO---- Mim -----LA
Sé que puedes evitar el temor

-DO -----LA------ DO---- MIm
mientras cae el inmenzo dolor

-----DO----- LA
que ahoga tu voz.

SOLO

e|----------------------------------------|
B|----------------------------------------|
G|----7----9------11--11/12/11---7--------|
D|------7-----7---------------------------| Y SIGUE...
A|----------------------------------------|
E|----------------------------------------|

Fuerza tu corazón ---|SILENCIO
contra la adversidad |SILENCIO

----DO-------- LA
y nadie te detendrá

---------DO---- Mim -----LA
Sé que puedes evitar el temor

-DO----- LA------ DO------- MIm
mientras cae la barrera del dolor

---------DO---- Mim -----LA
Sé que puedes evitar el temor

-DO----- LA------ DO------- MIm
mientras cae la barrera del dolor

---------DO---- Mim -----LA
Sé que puedes evitar el temor

-DO----- LA------ DO------- MIm
mientras cae la barrera del dolor

---------DO---- Mim -----LA
Sé que puedes evitar el temor

-DO----- LA------ DO------- MIm
mientras cae la barrera del dolor

---------DO---- Mim -----LA
Sé que puedes evitar el temor

-DO----- LA------ DO------- MIm
mientras cae la barrera del dolor

-----DO----- LA
que ahoga tu voz.

FINAL

SOL
e|-3---------------3-|
B|-3---------------3-|
G|-0---------------0-| X2
D|-0---------------0-|
A|-2--0-2-3-2-0-2--2-|
E|-3---------------3-|

DO
e|---------------0----|
B|---------------1----|
G|---------------0----|
D|---------------2----|
A|-0-2-3-2-0-----3----|
E|-----------3---3----|
Suggest correction
Give kudos to tab author, rate the tab!
1 2 3 4 5
comments
print report bad tab
guest
Wanna post a correction for this tab? Suggest correction