Oops, an error
Loading. Please wait.

Cuantas Palabras Tab

102 views 1 this week
no commentswrite comment
1 2 3 4 5
3 more votes to show rating
add to favorites
launch autoscroll
font size
0
reset
how to read this tab
guitar tuner
×
Best way to learn
"Cuantas Palabras"
Autoscroll
slow
fast
+/-
esc
set tempo
stop
Intro:

RIFF 1
e|---------------------------------------|
b|---------------------------------------|
g|---------------------------------------| x2
d|----4/5----4/5----4/5----4/5----4/5----|
a|--3------3------3------3------3--------|
e|---------------------------------------|


RIFF 2
e|-------------------------------|
b|-------------------------------|
g|-------7---------------7-------|
d|--2----7----8-----2----7----8--|
a|--2----5----8-----2----5----8--|
e|--0---------6-----0---------6--|


'Ocultando la verdad pueden convencer'
e|---------------------------------------|
b|---------------------------------------|
g|---------------------------------------|
d|----4/5----4/5----4/5----4/5----4/5----|
a|--3------3------3------3------3--------|
e|---------------------------------------|

e|-------------------------------|
b|-------------------------------|
g|-------7---------------7-------|
d|--2----7----8-----2----7----8--|
a|--2----5----8-----2----5----8--|
e|--0---------6-----0---------6--|

'y sembrar la confusión sobre lo q ves'
e|---------------------------------------|
b|---------------------------------------|
g|---------------------------------------|
d|----4/5----4/5----4/5----4/5----4/5----|
a|--3------3------3------3------3--------|
e|---------------------------------------|

e|-------------------------------|
b|-------------------------------|
g|-------7---------------7-------|
d|--2----7----8-----2----7----8--|
a|--2----5----8-----2----5----8--|
e|--0---------6-----0---------6--|

'Juramentos de lealtad...........'
e|---------------------------------------|
b|---------------------------------------|
g|---------------------------------------|x5
d|----4/5----4/5----4/5----4/5----4/5----|
a|--3------3------3------3------3--------|
e|---------------------------------------|

Estribillo:

'La vida no hay q entregar'
e|---------------------|
b|---------------------|
g|---------------------|
d|-----9--9------7--7--|
a|-----7--6------5--4--|
e|--0---------0--------|

'Al circo del q habla por hablar'
e|---------------------|
b|---------------------|
g|---------------------|
d|-----9--9------7--7--|
a|-----7--6------5--4--|
e|--0---------0--------|

'La historia me dice q otra vez'
e|---------------------|
b|---------------------|
g|---------------------|
d|-----9--9------7--7--|
a|-----7--6------5--4--|
e|--0---------0--------|

'Se quieren robar tu identidad'
e|---------------------------|
b|---------------------------|
g|--5--------4-------3-------|
d|--5--------4-------3-------|
a|--3--------2-------1-------|
e|---------------------------|

       'Tu esencia espiritual'
e|------------------------------|
b|------------------------------|
g|------------------------------|
d|---------7--7--------5--------|
a|---------5--4--------3--------|
e|--0---------------------------|


Bueno, este es el primer tema q saco de oído,espero q les 
PD:Acepto cualquier tipo de criticas,este es mi mail: mauro_zeroz@
Suggest correction
Give kudos to tab author, rate the tab!
1 2 3 4 5
comments
print report bad tab
guest
You may want to rate the tab now too:
select rating
Wanna post a correction for this tab? Suggest correction