Oops, an error
Loading. Please wait.

Dale Tu Sangre Al Rey Tab

14 views 1 this week
no commentswrite comment
1 2 3 4 5
3 more votes to show rating
add to favorites
launch autoscroll
font size
0
reset
how to read this tab
guitar tuner
Autoscroll
slow
fast
+/-
esc
set tempo
stop
Help us to improve Ultimate-Guitar.com Take our survey!
×
Primero se toca y de apoco subimos el volumen
e|------------------------------------------------------|
b|------------------------------------------------------|
g|------------------------------------------------------|
d|------------------------------------------------------|
a|-0----------------------------------------------------|
d|-0----------------------------------------------------|

BASE 1
             pm.......         pm........
e|----------------------------------------|
b|----------------------------------------|
g|----------------------------------------|
d|----------------------------------------|
a|-0--7-8-8--0-0-0-0-0--3-5-5--0-0-0-0-0--|
d|-0--7-8-8--0-0-0-0-0--3-5-5--0-0-0-0-0--|

  pm........        pm.......
e|-------------------------------------|
b|-------------------------------------|
g|-------------------------------------|
d|-------------------------------------| X7
a|-0-0-0-0-0--2-3-3-0-0-0-0-0-8-7----7-|
d|-0-0-0-0-0--2-3-3-0-0-0-0-0-----10-7-|

Base 2
se diferencia en la ultima nota q lleva al pre estribillo
             pm.......        pm........
e|----------------------------------------|
b|----------------------------------------|
g|----------------------------------------|
d|----------------------------------------|
a|-0--7-8-8--0-0-0-0-0--3-5-5--0-0-0-0-0--|
d|-0--7-8-8--0-0-0-0-0--3-5-5--0-0-0-0-0--|

  pm........        pm......
e|-------------------------------------|
b|-------------------------------------|
g|-------------------------------------|
d|-------------------------------------|
a|-0-0-0-0-0--2-3-3-0-0-0-0-0-8-7----8-|
d|-0-0-0-0-0--2-3-3-0-0-0-0-0-----10-8-|

Pre Estribillo
e|---------------------------------------------------|
b|---------------------------------------------------|
g|---------------------------------------------------|
d|---------------------------------------------------|
a|-8----8-7----10----8-7-----------------------------|
d|-8--------10-10--------10--------------------------|

e|---------------------------------------------------|
b|---------------------------------------------------|
g|---------------------------------------------------|
d|---------------------------------------------------|
a|-8----8-7----10----8-7----10----11-11-11-7---------|
d|-8--------10-10--------10-10----11-11-11-7---------|

Base1 X3
Base 2
Pre estribillo

Estribillo
e|------------------------------------|
b|------------------------------------|
g|------------------------------------|
d|-7--9--10-5--9--10-3----3------X4---|
a|-5--7--8--3--7--8--1----2-----------|
d|------------------------------------|

Pre solo
e|---------------------------------------------------|
b|---------------------------------------------------|
g|---------------------------------------------------|
d|---------------------------------------------------|
a|--8-------------------8------------------------------|
d|--8-------------------9------------------------------|

Solo. Con Wahwah
e|---------------------------------------------------|
b|---------------------------------------------------|
g|---------------------------------------------------|
d|-11-12-14-15-14---12-11-12--7~~~-------------------|
a|---------------------------------------------------|
d|---------------------------------------------------|

e|-------10------------------------------------------|
b|-13^^^----13-13------------------------------------|
g|-------------12^^-12-10-12-10----------------------|
d|------------------------------12~~~----------------|
a|---------------------------------------------------|
d|---------------------------------------------------|

e|--12h13-12~~~-12h13-12~~~-12h13-12~~~-13-12-/15~~~-|
b|---------------------------------------------------|
g|---------------------------------------------------|
d|---------------------------------------------------|
a|---------------------------------------------------|
d|---------------------------------------------------|

e|-17-18-17h18p17h18p17h18---------------------------|
b|-------------------------17h18p17h18p17h18p17h18---|
g|---------------------------------------------------|
d|---------------------------------------------------|
a|---------------------------------------------------|
d|---------------------------------------------------|

e|---------------------------------------------------|
b|---------------------------------------------------|
g|-17h18p17h18p17h18p17h18---------------------------|
d|-------------------------18h19p18h19p18h19p18h19---|
a|---------------------------------------------------|
d|---------------------------------------------------|

e|-13-10----10h13p10h13p10----10h13p10h13p10---------|
b|-------12----------------12------------------------|
g|---------------------------------------------------|
d|---------------------------------------------------|
a|---------------------------------------------------|
d|---------------------------------------------------|

e|-------12h15p12-------14h17p14------17h20p17-------|
b|-10/12----------12/14----------14/17---------------|
g|---------------------------------------------------|
d|---------------------------------------------------|
a|---------------------------------------------------|
d|---------------------------------------------------|

e|---17--22^^^^-22^-22^-22^^^------------------------|
b|-17------------------------------------------------|
g|---------------------------------------------------|
d|---------------------------------------------------|
a|---------------------------------------------------|
d|---------------------------------------------------|

Después del solo viene la bata y solo toca lo siguiente
e|---------------------------------------------------|
b|---------------------------------------------------|
g|---------------------------------------------------|
d|---------------------------------------------------|
a|--7-8-8-------3-5-5-------2-3-3----8-7----8--------|
d|--7-8-8-------3-5-5-------2-3-3--------10-8--------|

Pre estribillo X2

Estribillo X4

Fin con la Base

Mail 
Arreglos o lo q sea bienvenido sea
Suggest correction
Give kudos to tab author, rate the tab!
1 2 3 4 5
comments
print report bad tab
guest
You may want to rate the tab now too:
select rating
Wanna post a correction for this tab? Suggest correction