Oops, an error
Loading. Please wait.

Enroscado Al Mundo Tab

62 views 1 this week
no commentswrite comment
1 2 3 4 5
3 more votes to show rating
add to favorites
launch autoscroll
font size
0
reset
how to read this tab
guitar tuner
Autoscroll
slow
fast
+/-
esc
set tempo
stop
Help us to improve Ultimate-Guitar.com Take our survey!
×
Hola Gente Aca Les Traigo Enroscado Al Mundo Tema De Oconnor
LA 6ta Cuerda LA Afinamos D(RE)


Intro
E/-----------------------------
B/-----------------------------
G/-----------------------------
D/-----------------------------
A/--------3------2------0------
D/2h444444-444444-444444-444444

E/----------------------------
B/----------------------------
G/----------------------------
D/----------------------------
A/-------3------2------0------
D/0000000-000000-000000-000000

Después de hacerlo
no hay más
excusas que explicar
que nas te da

Miro la luna
Perdio
su luz en el umbral
Al suspirar

E/----------------------------
B/----------------------------
G/----------------------------
D/---3-------0----------------
A/---3-------0----------------
D/---3-------0----------------

Te espera un día mas

E/----------------------------
B/----------------------------
G/----------------------------
D/4------7-------0------------
A/4------7-------0------------
D/4------7-------0------------

Alguna gente no sabe
lidiar con lo que hace

E/----------------------------
B/----------------------------
G/----------------------------
D/4----2----0----6------------
A/4----2----0----4------------
D/4----2----0-----------------

Y enroscan al mundo
confundiendo mas.

Intro
E/-----------------------------
B/-----------------------------
G/-----------------------------
D/-----------------------------
A/--------3------2------0------
D/2h444444-444444-444444-444444

E/----------------------------
B/----------------------------
G/----------------------------
D/----------------------------
A/-------3------2------0------
D/0000000-000000-000000-000000

Te vez en llamas
LA piel
que se inflama mas
hasta explotar

Es que la mugre
se fue
Metiendo hasta tapar
tu dulce hogar

E/----------------------------
B/----------------------------
G/----------------------------
D/---3-------0----------------
A/---3-------0----------------
D/---3-------0----------------

Te espera un día mas.

E/----------------------------
B/----------------------------
G/----------------------------
D/4----2----0----6------------
A/4----2----0----4------------
D/4----2----0-----------------

Alguna gente no sabe
lidiar con lo que hace

E/----------------------------
B/----------------------------
G/----------------------------
D/4----2----0----6------------
A/4----2----0----4------------
D/4----2----0-----------------

Y enroscan al mundo
confundiendo mas.

Pre Solo...
E/-----------------------------
B/-----------------------------
G/-----------------------------
D/4444444-000000-5555555-333333
A/4444444-000000-5555555-333333
D/4444444-000000-5555555-333333

Solo....( El Solo No Lo Saque)

Alguna gente no sabe
lidiar con lo que hace

E/----------------------------
B/----------------------------
G/----------------------------
D/4----2----0----6------------
A/4----2----0----4------------
D/4----2----0-----------------

Y enroscan al mundo
confundiendo mas.

E/----------------------------
B/----------------------------
G/----------------------------
D/4----2----0----6------------
A/4----2----0----4------------
D/4----2----0-----------------
Suggest correction
Give kudos to tab author, rate the tab!
1 2 3 4 5
comments
print report bad tab
guest
You may want to rate the tab now too:
select rating
Wanna post a correction for this tab? Suggest correction