Oops, an error
Loading. Please wait.

Hacedor De Terror Tab

version 2
version 2

Whole song

51 views 1 this week
no commentswrite comment
1 2 3 4 5
3 more votes to show rating
add to favorites
×
Save as Personal and add changes to this tab that will be seen only by you. Learn more ›
×
You can save this tab as Personal to edit and correct it or add notes. All changes will be seen only by you. Learn more »
save as personal
new!
launch autoscroll
font size
0
reset
how to read this tab
guitar tuner
Autoscroll
slow
fast
+/-
esc
set tempo
stop
O'connor - Hacedor de terror

Nota: sexta en RE (d)

Intro/Riff 1
1|--------------------|
2|--------------------|
3|-3--------------x6--|
4|-3------3-----3-----|
5|-1--1-1---1-1-------|
6|--------------------|
 Pm   ...    ...


Riff 2
1|-------------------------------------------------------------------|
2|-------------------------------------------------------------------|
3|-------------------------------------------------------------------|
4|-------------------------------------------------------------------|
5|---------2-3------2-3--------------------------------2-3-------2-3-|
6|-2-2-2-2------0-2------0-0-0-0-7-8-0-0-7-8--2-2-2-2-------0-2------|


E5
El terror siempre es vil
El amor es vivir
F5#        D5
Solo estoy donde ir
E5
El terror o el amor


Riff 3
1|------------------------------|
2|------------------------------|
3|---------------------------x3-|
4|------------------------------|
5|---------2-3---------2-3------|
6|-3-3-3-3-----2-2-2-2----------|


Riff 3
Me tentaron con el odio
Me inculcaron la mentira
Y creí que era el modo


A5#
Pensador
     C5  G5#        A5         F5
Pero hay toda una pureza que mostrar
       C5  G5#            A5          A5#
Porque hay todo un mundo enfermo que curar


Intro/Riff 1


Riff 4
1|-------------------------|
2|----------------------X2-|
3|-------------------------|
4|-------------------------|
5|---------2-3------2-3----|
6|-2-2-2-2------0-2--------|


E5
Pensador que decís?
Todo esta por caer
F5#        D5
Solo estas infeliz
E5
Hacedor de terror


Riff 3
Educaste con el odio
Inculcaste la mentira
Y creíste que era el modo


A5#
Pensador
     C5  G5#        A5         F5
Pero hay toda una pureza que mostrar
       C5  G5#            A5         A5#
Porque hay todo un mundo enfermo que curar


Intro/Riff 1


SOLO sobre Riff 3 x8
Intro/Riff 1


     C5  G5#        A5         F5
Pero hay toda una pureza que mostrar
       C5  G5#            A5         F5
Porque hay todo un mundo enfermo que curar

     C5  G5#        A5         F5
Pero hay toda una pureza que mostrar
       C5  G5#            A5         A5#
Porque hay todo un mundo enfermo que curar


Intro/Riff 1

Termina con Riff 4

Notas con la Afinacion Drop d (sexta cuerda en RE)

   D   D#  E   F   F#  G   G#  A   A#  B   C    C#   Dm
e|---|---|---|---|---|---|---|---|---|---|----|----|----|
b|---|---|---|---|---|---|---|---|---|---|----|----|----|
g|---|---|---|---|---|---|---|---|---|---|----|----|----|
d|-0-|-1-|-2-|-3-|-4-|-5-|-6-|-7-|-8-|-9-|-10-|-11-|-12-|
a|-0-|-1-|-2-|-3-|-4-|-5-|-6-|-7-|-8-|-9-|-10-|-11-|-12-|
d|-0-|-1-|-2-|-3-|-4-|-5-|-6-|-7-|-8-|-9-|-10-|-11-|-12-|


Esta tema solo utilisa el d, es decir las cuerdas al aire
Suggest correction
Give kudos to tab author, rate the tab!
1 2 3 4 5
comments
print report bad tab
guest
Wanna post a correction for this tab? Suggest correction