Oops, an error
Loading. Please wait.

Hay Un Presagio Tab

47 views 1 this week
no commentswrite comment
1 2 3 4 5
3 more votes to show rating
add to favorites
launch autoscroll
font size
0
reset
how to read this tab
guitar tuner
Autoscroll
slow
fast
+/-
esc
set tempo
stop
Help us to improve Ultimate-Guitar.com Take our survey!
×
Nota: Sexta en RE (d)
Pero tambien se puede hacer en Mi

Intro/Riff 1
1|-------------------------------|
2|-------------------------------|
3|-------------------------------|
4|-2--------------------------2--| X4
5|-2-----3-2----2-1----1---1--2--|
6|-2-2-5------5------4---4----2--|


Riff 2
NOta:
-Este es un solo riff
-Escuchar bien el tema para encontrarle el ritmo
1|-------------------------|--------------------
2|-------------------------|--------------------
3|---------------0-2-0-----|--------------------
4|-2-------------0-2-0--x3-|-2--------2-2----2--
5|-2-----------------------|-2--------0-0----2--
6|-2-2-2-2-2-2-2-----------|-2-2-2-2-------5-2--
  Pm............               .....

SOBRE Riff 2
Estoy pensando como resolver
El acertijo que me da la maquina
Mientras miramos el atardecer
La bola roja se esta haciendo trágica

Intro/Riff 1 X 2

SOBRE Riff 2
Hay un presagio que reconocer
La profecía que nos saca de orbita
Se acerca el día que podremos ver
La antorcha viva que mata la humanidad


(Escuchar bien el RITMO)
E5      D5#           D5             E5
Estoy seguro de lo que hay que hacer
E5      D5#           D5             E5
Pero el destino es un verdugo cruel
E5      D5#           D5             C5-Puente
Que nos condena a desaparecer hoy

Puente
1|-------------|
2|-------------|
3|-------------|
4|-------------|
5|-3---2---2---|
6|---5---4---2-|


Riff 3
NOta:
-Son siempre las MISMAS NOTAS
-Escuchar bien el tema para encontrarle el ritmo
1|-------------------|
2|-C5--B5-G5-B5-A5---|
3|-------------------|
4|-10--9--5--9--7-7--|
5|-10--9--5--9--7-7--|
6|-10--9--5--9--7-7--|


Sobre Riff 3
Un resplandor solar
Magnético final
El resplandor solar

G5
Es el juicio final
A5                   Intro/Riff 1 x2
Y esta por reventar, Ante ti


SOBRE Riff 2
No hay remedio ni es casualidad
Que el infierno venga desde el cielo azul
Una romántica aniquilación
La majestuosa flama blanca y celestial


(Escuchar bien el RITMO)
E5      D5#           D5             E5
Estoy seguro de lo que hay que hacer
E5      D5#           D5             E5
Pero el destino es un verdugo cruel
E5      D5#           D5             C5-Puente
Que nos condena a desaparecer hoy


Sobre Riff 3
Un resplandor solar
Magnético final
El resplandor solar

G5
Es el juicio final
A5                   E5
Y esta por reventar, Ante ti


Pre-Solo
A5 - G5
Solo sobre
e5 - A5 - G5 - e5


(Escuchar bien el RITMO)
E5      D5#           D5             E5
Estoy seguro de lo que hay que hacer
E5      D5#           D5             E5
Pero el destino es un verdugo cruel
E5      D5#           D5             C5-Puente
Que nos condena a desaparecer hoy


Luego solo va repitiendo partes y fade out
Suggest correction
Give kudos to tab author, rate the tab!
1 2 3 4 5
comments
print report bad tab
guest
You may want to rate the tab now too:
select rating
Wanna post a correction for this tab? Suggest correction