Oops, an error
Loading. Please wait.

Lima Del Ritmo Tab

39 views 1 this week
no commentswrite comment
1 2 3 4 5
3 more votes to show rating
add to favorites
launch autoscroll
font size
0
reset
how to read this tab
guitar tuner
×
Best way to learn
"Lima Del Ritmo"
Autoscroll
slow
fast
+/-
esc
set tempo
stop
la Viola A Afinar La 6ta En D(RE)

intro
1----------------------------------------------------
2----------------------------------------------------
3----------------------------------------------------
4----------------------------------------------------
5-------------------------------------------5-6-9-8--
6----5b--000000--6b6b--000000--5b---000000--5-6-9-8--

base
1----------------------------------------------------
2----------------------------------------------------
3----------------------------------------------------
4----------------------------------------------------
5----------------------------------------99999-------
6---5b--00000--6b6b--000000--5b--000000--99999-------

Está limado no tiene resto
Para el ritmo de hoy

Qué ritmo?, Qué ritmo?
Cuál es el ritmo hoy?

estribillo
1-------------------------------------------------------
2-------------------------------------------------------
3-------------------------------------------------------
4-------------------------------------------------------
5---6h5--9h8--6h5--9h8--6h5--9h8--6h5--9h8--6h5--99999--
6---6h5--9h8--6h5--9h8--6h5--9h8--6h5--9h8--6h5--99999--

El ritmo lo limo

solo
1-------------------------------------------------------
2-------------------------------------------------------
3-------------------------------------------------------
4-------------------------------------------------------
5--0-6h5-6h5-6h5--0-6h5-6h5-6h5--0-6h5-6h5-6h5--99999---
6--0-6h5-6h5-6h5--0-6h5-6h5-6h5--0-6h5-6h5-6h5--99999---

base
1----------------------------------------------------
2----------------------------------------------------
3----------------------------------------------------
4----------------------------------------------------
5----------------------------------------99999-------
6---5b--00000--6b6b--000000--5b--000000--99999-------

Está cansado no tiene pilas
Para el ritmo de hoy

Qué ritmo?, Qué ritmo?
Cuál es el ritmo hoy?

estribillo
1-------------------------------------------------------
2-------------------------------------------------------
3-------------------------------------------------------
4-------------------------------------------------------
5---6h5--9h8--6h5--9h8--6h5--9h8--6h5--9h8--6h5--99999--
6---6h5--9h8--6h5--9h8--6h5--9h8--6h5--9h8--6h5--99999--


El ritmo lo limo

base
1----------------------------------------------------
2----------------------------------------------------
3----------------------------------------------------
4----------------------------------------------------
5----------------------------------------99999-------
6---5b--00000--6b6b--000000--5b--000000--99999-------

Me mira raro ya no da abasto
Para el ritmo de hoy

Qué ritmo?, Qué ritmo?
Cuál es el ritmo hoy?

estribillo
1-------------------------------------------------------
2-------------------------------------------------------
3-------------------------------------------------------
4-------------------------------------------------------
5---6h5--9h8--6h5--9h8--6h5--9h8--6h5--9h8--6h5--99999--
6---6h5--9h8--6h5--9h8--6h5--9h8--6h5--9h8--6h5--99999--


El ritmo lo limo

Espero Que Le Aya Gustatado Y Que Le Aya Salido :) Saludos Aguante Oconnor
Suggest correction
Give kudos to tab author, rate the tab!
1 2 3 4 5
comments
print report bad tab
guest
You may want to rate the tab now too:
select rating
Wanna post a correction for this tab? Suggest correction