Oops, an error
Loading. Please wait.

Memoria De Siglos Tab

17 views 3 this week
no commentswrite comment
1 2 3 4 5
3 more votes to show rating
add to favorites
launch autoscroll
font size
0
reset
how to read this tab
guitar tuner
×
Best way to learn
"Memoria De Siglos"
Autoscroll
slow
fast
+/-
esc
set tempo
stop
REFERENCIAS:
h ó /: ligado asendente
p: ligado descendente
A: armonico
PM: palm muting (tapar con la palma derecha las cuerdas)
V: vibrato
b: bend(estirar)

E------------------------------------------------------------------------
B------------------------------------------------------------------------
G------------------------------------------------------------------------
D-------2-4-4/5-------2-4/5-4-4h5p4---------2-4-4/5-------2--5/7-5-4h5p4-
A-----2-------------2---------------5-----2-------------2----------------
E---0-------------0---------------------0-------------0------------------
  PM.....         .......               .......       .....                                     
                                                               x2       
E-----------------------+---------------------------------------------
B-----------------------+---------------------------------------------
G------7-6-5------------+---------------------------------------------
D---5--5-4-3-----7-6-5--+------2-2-2/4-2------------2-2-2/4-2---------
A---3---------5--5-4-3--+----2------------------2---------------------
E-------------3---------+-0-----------------0-------------------------
                          PM....            ..........                                
                                                                   
E--------------------------+-------------+------+---------------------
B--------------------------+-------------+------+---------------------
G--------7-6-5-------------+-------------+------+---------------------No estoy seguro
D---4-5--5-4-3-----7-6-5---+----2/4--2---+--x4--+--/(9--10---12V)-----de esto (9-10-12)
A---2-3---------5--5-4-3---+---2---------+------+---------------------
E---------------3----------+--0----------+------+---------------------
                             PM...                                         

  En lo que digo...   No seras siempre el primero...                                 
E-------------------+---------------------------------------------------
B-------------------+---------------------------------------------------
G-------------------+---------------------------------------------------
D------2-2-2/4-2----+--5-5-5-5-5-5-5-5----7-7-7-7-7-7-7-7---------------
A-----2-------------+--3-3-3-3-3-3-3-3----5-5-5-5-5-5-5-5---------------
E---0---------------+---------------------------------------------------
   PM.......                                                                   
                                                                     
E-----------------------------------------------------------------------
B-----------------------------------------------------------------------
G-----------------------------------------------------------------------
D------2-4-4/5A------2-4/5-4-4h5p4---------2-4-4/5A-------2-5/7-5-4h5p4-
A----2-------------2---------------5-----2-------------2----------------
E--0-------------0---------------------0-------------0------------------
  PM....         .....                 .....         ......                                 
                                                                  
E-----------------------+---------------------------------------------
B-----------------------+---------------------------------------------
G------7-6-5------------+---------------------------------------------
D---5--5-4-3-----7-6-5--+------2-2-2/4-2------------2-2-2/4-2---------
A---3---------5--5-4-3--+----2------------------2---------------------
E-------------3---------+-0-----------------0-------------------------
                                                                     
 Se repite varias veces                                                                    
E---------------------------------------------------------------------
B---------------------------------------------------------------------
G---------------------------------------------------------------------
D----5-5-5-5-5-5---7-7-7-7-7----9-----9-----9-----9-----9-------------
A----3-3-3-3-3-3---5-5-5-5-5----7-x-x-7-x-x-7-x-x-7-x-x-7-------------
E---------------------------------------------------------------------
                                                                      
  1er solo:                                               
E-----------------------
B-----------------------
G-----------------------
D-----9-7-5-4-4h5p4-----   y sigue....
A---7---------------7---
E-----------------------

E---------------------------------------------------------------------
B---------------------------------------------------------------------
G---------------------------------------------------------------------
D----5-5-5-5-5-5---7-7-7-7-7----9-----9-----9-----9-----9-------------
A----3-3-3-3-3-3---5-5-5-5-5----7-x-x-7-x-x-7-x-x-7-x-x-7-------------
E---------------------------------------------------------------------

2do solo

  ehh  eh  eh   eh!    eh     eh eh eh    eh eh  eh  
E?9bb---7-----------+--11bb---9-----11b---9--------------
B-----------9-?7vvv-+------------11----------11--10vv----
G-------------------+------------------------------------  y sigue...
D-------------------+------------------------------------
A-------------------+------------------------------------
E-------------------+------------------------------------

Final:
E---------------------------------------------------------------------
B---------------------------------------------------------------------
G---------------------------------------------------------------------
D----5-5-5-5-5-5---7-7-7-7-7----9-------------------------------------
A----3-3-3-3-3-3---5-5-5-5-5----7-------------------------------------
E---------------------------------------------------------------------


Aguante Jorge Nuñez loco, SOY UN CAPO!!! Saludos a Angi que me re mata
Se lo dedico a Myri Z. de Pamplona
_________________________________________________________________________
Suggest correction
Give kudos to tab author, rate the tab!
1 2 3 4 5
comments
print report bad tab
guest
You may want to rate the tab now too:
select rating
Wanna post a correction for this tab? Suggest correction