Oops, an error
Loading. Please wait.

No Quisiste Entender Tab

41 views 1 this week
no commentswrite comment
1 2 3 4 5
3 more votes to show rating
add to favorites
launch autoscroll
font size
0
reset
how to read this tab
guitar tuner
×
Best way to learn
"No Quisiste Entender"
Autoscroll
slow
fast
+/-
esc
set tempo
stop
Afinación: Re Sol Do Fa La Re

Intro:
|---------------------------|
|---------------------------|
|--------6-5-6-------6-5-6--|
|--------6-5-6-------6-5-6--|
|--4-4-4-4-3-4-4--4--4-3-4--|
|--2-2-2-------2--2---------|
PM .....       .  .

|------------------------------------|    |---------------|
|------------------------------------|    |---------------|
|------------------------------------| x2 |--------6-5-6--|
|------------------------------------|    |--------6-5-6--|
|------2222222-----------2222222222--|    |--4-4-4-4-3-4--|
|--2p0-0000000-2p0-0-5p0-0000000000--|    |--2-2-2--------|
PM     .......           ..........       PM .....

|------------------------------------|
|------------------------------------|
|------------------------------------|
|------------------------------------|
|------2222222-----------2222222222--|
|--2p0-0000000-2p0-0-5p0-0000000000--|
PM     .......           ..........
                     Frente a la cruz del señor
                     arde la culpa interior
                     De que te sirve rezar?
                     si en la conciencia no hay paz

|------------------------|
|------------------------|
|-------------------9--7-|
|-------------------9--7-|
|-------------------7--5-|
|-2-2-2-3-3-3-5-5-5------|
PM.................
  Nada escucharas
  en la soledad
  Llora el cielo
  gris lleno de frialdad


Con egoísmo feroz
te atragantas de poder
y no queres entender
tu mental enfermedad

Nada escucharas
en la soledad
Llora el cielo
gris lleno de frialdad

|----------------------------------------------------|
|----------------------------------------------------|
|--------4-3-4-------4-3-4--------4-3-4-------4-3-4--|
|--------4-3-4-------4-3-4--------4-3-4-------4-3-4--|
|--2-2-2-2-1-2-2--2--2-1-2--2-2-2-2-1-2-2--2--2-1-2--|
|--0-0-0-------0--0---------0-0-0-------0--0---------|
PM .....       .  .         .....       .  .
                     La culpa hay que pagar,  no llores
                     Faltaste A LA verdad,    no llores
                     La culpa hay que pagar,  no llores
                     Faltaste A LA verdad,    no llores

Jajajajajajajajajajajajajajaja
|-----------------------------|
|-----------------------------|
|------4-4-----3-3------------| x4
|------4-4-----3-3------------|
|--222-2-2-222-1-1-222222222--|
|--000-----000-----000000000--|
PM ...     ...     .........

Solo:
|-----------------------------|    |-------------------|    |-----------------|
|-----------------------------|    |-------------------|    |-----------------|
|------4-4-----3-3------------| x4 |------4-4-----3-3--| x4 |-----------------|
|------4-4-----3-3------------|    |------4-4-----3-3--|    |-----------------|
|--222-2-2-222-1-1-222222222--|    |--222-2-2-222-1-1--|    |-----------------|
|--000-----000-----000000000--|    |--000-----000------|    |--2-2-2-3-3-3-5--|
PM ...     ...     .........       PM ...     ...           PM .............


Te vas
en la soledad
Llora el cielo
gris lleno de frialdad

Nada escucharas
en la soledad
Llora el cielo
gris lleno de frialdad

La culpa hay que pagar, no llores
Faltaste a la verdad, no llores
La culpa hay que pagar, no llores
Faltaste a la verdad, no llores

|------------------------------------|    |-----------------------------|
|------------------------------------|    |-----------------------------|
|------------------------------------| x2 |--------6-5-6-------6-5-6----|
|------------------------------------|    |--------6-5-6-------6-5-6-4--|
|------2222222-----------2222222222--|    |--4-4-4-4-3-4-4--4--4-3-4-4--|
|--2p0-0000000-2p0-0-5p0-0000000000--|    |--2-2-2-------2--2--------2--|
PM     .......           ..........       PM .....       .  .

                 V8
Hermética  Horcas  Logos  Rata Blanca

Freyre, Cba.
Suggest correction
Give kudos to tab author, rate the tab!
1 2 3 4 5
comments
print report bad tab
guest
You may want to rate the tab now too:
select rating
Wanna post a correction for this tab? Suggest correction