Oops, an error
Loading. Please wait.

Reventar O Morir Tab

21 views 1 this week
no commentswrite comment
1 2 3 4 5
3 more votes to show rating
add to favorites
×
Save as Personal and add changes to this tab that will be seen only by you. Learn more ›
×
You can save this tab as Personal to edit and correct it or add notes. All changes will be seen only by you. Learn more »
save as personal
new!
launch autoscroll
font size
0
reset
how to read this tab
guitar tuner
Autoscroll
slow
fast
+/-
esc
set tempo
stop
Acordes de 5ta.
La notas indican el sonido, NO la posición donde se deben pulsar.

Afinación: Re Sol Do Fa La Re

Intro: x4
|------------------------------|
|------------------------------|
|------------------------------|
|------------------------------|
|------------------------------|
|--2-0-2-2~-0-2-2~-0-2-0-5~-0--|


|-----------------------------------------------------------
|-----------------------------------------------------------
|-----------------------------------------------------------
|----------------------------------------------5------------
|--------0-2-------------0-2-------0-2---------5------------
|-2------------3---2--3---------2---------3-2--3------------
  No hay lugar por donde salir, el infierno viene hasta aquí
-------------------------------------------------------|
-------------------------------------------------------|
---------------------------------------2------------4--|
---------------------------------------2------------4--|
----0--2------------0-2----0--2--------0------------2--|
-2---------3--2--3-------2---------3-2-----------------|
 Si tu paz ya se terminó solo queda    reventar o morir


          DO           MI         DO          MI
|------------------------------------------------
|------------------------------------------------
|---------7-----------------------7--------------
|---------7------------4----------7-----------4--
|---------5------------4----------5-----------4--
|----------------------2----------------------2--
  Tiempos violentos en mi, no los puedo controlar
        ?           DO
--------------------------------|
--------------------------------|
--------?-----------7-----------|
--------?-----------7-----------|
--------?-----------5-----------|
--------------------------------|
 Solo estoy aquí, matando por vivir


Intro x2


Puedo ser un gran anfitrión
SI querés acercarte A MI
       de la sociedad
solo queda reventar o morir

Tu cabeza va a estallar
aunque quieras escapar
porque estoy aquí
matando por vivir

Puente:
|-----------------------------------------------|
|-----------------------------------------------|
|-----------------------------------------------|
|-----------------------------------------------|
|-----------------------------------------------|
|--2-0-2-2~-0-2-2~-0-2-2~-0-2-2~-0-2-2~-0-2-2~--|


Solo: Intro x4


  SOL           LA       SOL      LA
Estoy aquí otra vez, esperandoteeeeeeeeeeeeeeeeeeee


        DO           MI
Tiempos violentos en mi,
       DO          MI
no los puedo controlar
     DO            MI
Tu cabeza va a estallar
       DO           MI
aunque quieras escapar


        DO           MI
Tiempos violentos en mi,
       DO          MI
no los puedo controlar
     DO            MI
Tu cabeza va a estallar
         ?
porque estoy aquí
  RE
matando por vivir

Intro x4

Final Piano: x4
   MI  MI DO SI
|---------------|
|---------------|
|---------------|
|------4--------|
|---------3--2--|
|--2------------|

                 V8
Hermetica  Horcas  Rata Blanca  Logos

Freyre, Córdoba (Argentina)
Suggest correction
Give kudos to tab author, rate the tab!
1 2 3 4 5
comments
print report bad tab
guest
Wanna post a correction for this tab? Suggest correction