Oops, an error
Loading. Please wait.

Reza A La Indiferencia Tab

34 views 1 this week
no commentswrite comment
1 2 3 4 5
3 more votes to show rating
add to favorites
launch autoscroll
font size
0
reset
how to read this tab
guitar tuner
×
Best way to learn
"Reza A La Indiferencia"
Autoscroll
slow
fast
+/-
esc
set tempo
stop
INTRO-BASE 

e|-------------------------------------|
B|-------------------------------------|
G|-------------------------------------|
D|-------------------------------------| 
A|-7-7-7-7-7-7-7-7--8-8-8-8-8-8-8-8----|
E|-0-0-0-0-0-0-0-0--6-6-6-6-6-6-6-6----|

e|--------------------------------------------|
B|--------------------------------------------|
G|--------------------------------------------|
D|--------------------------------------------| 
A|-7--7--7--7--7--7--7--7--8-8-8-8-8-8-8-8----|
E|-0--0--0--0--0--0--0--0--6-6-6-6-6-6-6-6----|
   La escuela de la miseria...


(Todos los versos se tocan de la misma forma)

Estribillo. (No estoy seguro).
e|----------------------------------|
B|----------------------------------|
G|----------------------------------|
D|----------------------------------| 
A|--2-----8--7-----2----8--7--------|
E|--0-----6--5-----0----6--5--------|
---Donde estas... donde irás...

Antes del solo.
e|-------------------------------------|
B|-------------------------------------|
G|-------------------------------------|
D|-------------------------------------| 
A|-2-0-3-2-0-2-0---2--9----------------|
E|---------------3---------------------|

Final.
e|-------------------------------------|
B|-------------------------------------|
G|-------------------------------------|
D|-------------------------------------| 
A|-2-0-3-2-0-2-0---2--2----------------|
E|---------------3----0----------------|

La escuela de la miseria
Te enseña todo el rencor
Comiendo basura fresca
La infancia me destrozó
Donde estás Donde irás
Donde estás Donde irás
Los ojos de la tristeza
Quebrado su decepción
Rezando a la indiferencia
De un Cristo que no te vio
Donde estás Donde irás
Donde estás Donde irás
Al filo de la navaja
La patria me condenó
Hurgando en la carroña
Que escupe el entregador
Donde estás Donde irás
Donde estás Donde irás.
Suggest correction
Give kudos to tab author, rate the tab!
1 2 3 4 5
comments
print report bad tab
guest
You may want to rate the tab now too:
select rating
Wanna post a correction for this tab? Suggest correction