Oops, an error
Loading. Please wait.

Rock Del Suicida Tab

176 views 3 this week
no commentswrite comment
1 2 3 4 5
3 more votes to show rating
add to favorites
launch autoscroll
font size
0
reset
how to read this tab
guitar tuner
×
Best way to learn
"Rock Del Suicida"
Autoscroll
slow
fast
+/-
esc
set tempo
stop
Afinación: e-B-G-D-A-D

Introducción X2:
e |---------------------------------------|
B |---------------------------------------|
G |---------------------------------------|
D |-0---0-3-2-1-0--------0-3-2-1-0--------|
A |-0---0-3-2-1-0--5~----0-3-2-1-0--3~----|
D |-0---0-3-2-1-0--------0-3-2-1-0--------|

e |--------------------------------------------------|
B |--------------------------------------------------|
G |-------------------------------------8-8-8-8-8-10-|
D |-0-3-2-1---0-3-2-1-0-------0-3-2-1---8-8-8-8-8-10-|
A |-0-3-2-1---0-3-2-1-0--2~---0-3-2-1---6-6-6-6-6-8--|
D |-0-3-2-1---0-3-2-1-0-------0-3-2-1----------------|


D5
Aturdido de tanto sufrir
F5
En mi alforja llevo un misil
D5
Como corren lejos de mi
F5
Son cobardes quieren vivir.

Estribillo:
        D5
Soy suicida
G#5               D#5-D5
Vine a reventar con vos
Vine a reventar con vos
                     D#5
Y que venga el fin


 INTRO x1

D5
Mis ideas van a explotar
F5
En mi ombligo cargo trotil
D5
Soy un fana de la religión
F5
Y en la muerte encuentro perdón.


D5
Soy suicida
G#5              D#5-D5
Vine a reventar  con vos
Vine a reventar con vos

Y que venga el fin

e |----------------------------|
B |----------------------------|
G |----------------------------| X4
D |-4---4-9-4-7-4---4-9-4-7-4--|
A |-4---4-9-4-7-4---4-9-4-7-4--|
D |-4---4-9-4-7-4---4-9-4-7-4--|

-solo-

INTRO x 1

Esta parte la hace solo con bajo:

Doy mi vida por existir
Ya te dije, yo soy asi.
Y mi fruto es la destrucción
F5
En la muerte encuentro perdón

Soy suicida
Vine a reventar con vos
Y que venga el fin.

e |----------------------------|
B |----------------------------|
G |----------------------------| X4
D |-4---4-9-4-7-4---4-9-4-7-4--|
A |-4---4-9-4-7-4---4-9-4-7-4--|
D |-4---4-9-4-7-4---4-9-4-7-4--|

-solo final-

Los solos no los saque, igual espero que les sirva.
Suggest correction
Give kudos to tab author, rate the tab!
1 2 3 4 5
comments
print report bad tab
guest
You may want to rate the tab now too:
select rating
Wanna post a correction for this tab? Suggest correction