Oops, an error
Loading. Please wait.

Saben Bien Tab

77 views 1 this week
no commentswrite comment
1 2 3 4 5
3 more votes to show rating
add to favorites
×
Save as Personal and add changes to this tab that will be seen only by you. Learn more ›
×
You can save this tab as Personal to edit and correct it or add notes. All changes will be seen only by you. Learn more »
save as personal
new!
launch autoscroll
font size
0
reset
how to read this tab
guitar tuner
Autoscroll
slow
fast
+/-
esc
set tempo
stop
intro
1/----------------------------------------------------------------
2/----------------------------------------------------------------
3/----------------------------------------------------------------
4/--5-2p0-2p0-5--5-2p0-2p0-5--5-2p0-2p0-5--5-2p0-2p0--7b53-7b53---
5/--5-2p0-2p0-5--5-2p0-2p0-5--5-2p0-2p0-5--5-2p0-2p0--7b53-7b53---
6/--5-2p0-2p0-5--5-2p0-2p0-5--5-2p0-2p0-5--5-2p0-2p0--7b53-7b53---

Si, vi nacer
Iluminados que saben bien
Como tranzar y joder
a todo aquel que cree, eso es
saben bien.
1/---------------------------------------------------------------------
2/---------------------------------------------------------------------
3/---------------------------------------------------------------------
4/--2--3--5--2--3--5--2--3--5--------7--8--10-7--8--10-7--8--10--------
5/--0--1--3--0--1--3--0--1--3--------5--6--8--5--6--8--5--6--8---------
6/---------------------------------------------------------------------

Ganado sin marcar es facil de robar
aprendimos mal
ganado sin marcar comemos sin pensar.
1/------------------------
2/------------------------
3/------------------------
4/--3--5--0--3--3--5--5b--
5/--1--3--0--1--1--3--5b--
6/--------0-----------5b--

Voy tras el y damos vueltas en un espiral
Voy tras el mientras caemos por un espiral.
1/----------------------------------------------------------------
2/----------------------------------------------------------------
3/----------------------------------------------------------------
4/--5-2p0-2p0-5--5-2p0-2p0-5--5-2p0-2p0-5--5-2p0-2p0--7b53-7b53---
5/--5-2p0-2p0-5--5-2p0-2p0-5--5-2p0-2p0-5--5-2p0-2p0--7b53-7b53---
6/--5-2p0-2p0-5--5-2p0-2p0-5--5-2p0-2p0-5--5-2p0-2p0--7b53-7b53---

Si, vi nacer
Generaciones que saben bien
Como avanzar y crecer
Pisando todo lo que cuidas y queres.
1/---------------------------------------------------------------------
2/---------------------------------------------------------------------
3/---------------------------------------------------------------------
4/--2--3--5--2--3--5--2--3--5--------7--8--10-7--8--10-7--8--10--------
5/--0--1--3--0--1--3--0--1--3--------5--6--8--5--6--8--5--6--8---------
6/--------------------------------------------------------------------


Ganado sin marcar es facil de robar
aprendimos mal
ganado sin marcar comemos sin pensar.
1/------------------------
2/------------------------
3/------------------------
4/--3--5--0--3--3--5--5b--
5/--1--3--0--1--1--3--5b--
6/--------0-----------5b--


Voy tras el y damos vueltas en un espiral
Voy tras el mientras caemos por un espiral.
1/----------------------------------------------------------------
2/----------------------------------------------------------------
3/----------------------------------------------------------------
4/--5-2p0-2p0-5--5-2p0-2p0-5--5-2p0-2p0-5--5-2p0-2p0--7b53-7b53---
5/--5-2p0-2p0-5--5-2p0-2p0-5--5-2p0-2p0-5--5-2p0-2p0--7b53-7b53---
6/--5-2p0-2p0-5--5-2p0-2p0-5--5-2p0-2p0-5--5-2p0-2p0--7b53-7b53---

Fin...
Suggest correction
Give kudos to tab author, rate the tab!
1 2 3 4 5
comments
print report bad tab
guest
Wanna post a correction for this tab? Suggest correction