Oops, an error
Loading. Please wait.

Se Parece Mucho A Vos Tab

27 views 1 this week
no commentswrite comment
1 2 3 4 5
3 more votes to show rating
add to favorites
launch autoscroll
font size
0
reset
how to read this tab
guitar tuner
×
Best way to learn
"Se Parece Mucho A Vos"
Autoscroll
slow
fast
+/-
esc
set tempo
stop
Nota con 6 cuerda en Re


Intro
1|-----------------------------------------|
2|-----------------------------------------|
3|-----------------------------------------|
4|-----------------------------------------|
5|---------5h6p5-5h6p5---------2h3p2-2h3p2-|
6|-0-0-0-0-------------0-0-0-0-------------|


Riff 1
1|---------------|
2|---------------|
3|---------------|
4|---------------|
5|-2/4/5/4/7/5-0-|
6|-2/4/5/4/7/5-0-|

D
Nieve en el corazón
D
Ciego de tanto fingir

Riff 1
Se parece mucho a vos
Se parece mucho a vos


D
Nadie lo puede parar
D
Ni tampoco engañar
Riff 1
Se parece mucho a vos
Se parece mucho a vos


A5#     A5
Que mas da
      A5#            A5
Si la vida sigue igual
        A5#       C5
Porque sigue igual
         F5      A5#
Lo que nunca cambiara


Repite Igual

Casi me pongo a pensar
Pero pude esperar
Me parece que soy yo
Me parece que soy yo

Solo debo comprender
El relato del mandril
Se parece mucho a vos
Se parece mucho a vos

Que mas da
Si la ida sigue igual
Porque sigue igual
Lo que nunca cambiara


          D5
Pierdo la fe
          C5
Y no doy mas
          G5
Pierdo la fe
          A5#
Y no doy mas
          D5#
Pierdo la fe
          D5
Y no doy mas
            C5
Pierdo el control
             B5
Pierdo el control


sOLO

SOBRE INTRO


A5#     A5
Que mas da
      A5#            A5
Si la vida sigue igual
        A5#       C5
Porque sigue igual
         F5      A5#
Lo que nunca cambiara

          D5
Pierdo la fe
          C5
Y no doy mas
          G5
Pierdo la fe
          A5#
Y no doy mas
          D5#
Pierdo la fe
          D5
Y no doy mas
            C5
Pierdo el control
             B5
Pierdo el control


Repite Intro y Fin

Notas con la Afinacion Drop D (sexta cuerda en RE)

   D   D#  E   F   F#  G   G#  A   A#  B   C    C#   D
e|---|---|---|---|---|---|---|---|---|---|----|----|----|
b|---|---|---|---|---|---|---|---|---|---|----|----|----|
g|---|---|---|---|---|---|---|---|---|---|----|----|----|
d|-0-|-1-|-2-|-3-|-4-|-5-|-6-|-7-|-8-|-9-|-10-|-11-|-12-|
a|-0-|-1-|-2-|-3-|-4-|-5-|-6-|-7-|-8-|-9-|-10-|-11-|-12-|
d|-0-|-1-|-2-|-3-|-4-|-5-|-6-|-7-|-8-|-9-|-10-|-11-|-12-|
Suggest correction
Give kudos to tab author, rate the tab!
1 2 3 4 5
comments
print report bad tab
guest
You may want to rate the tab now too:
select rating
Wanna post a correction for this tab? Suggest correction