Oops, an error
Loading. Please wait.

Tus Sermones Tab

57 views 3 this week
no commentswrite comment
1 2 3 4 5
3 more votes to show rating
add to favorites
launch autoscroll
font size
0
reset
how to read this tab
guitar tuner
Autoscroll
slow
fast
+/-
esc
set tempo
stop
Aca Les Traigo Otra :) Tus Sermones Como Siempre Afinar La 6ta En D(Re)

Intro:

E/------------------------------------------------------------
B/------------------------------------------------------------
G/------------------------------------------------------------
D/--------------4--------------4---------------------4--------
A/--2h3p2p0h2p0-4--2h3p2p0h2p0-4---------2h3p2p0h2p0-4--------
D/--------------4--------------444444444-------------4444444--

Se que estas pensando en lo que pienso
Se que estas pensando como ganar
La guerra que proponen los que quieren
Que agache la cabeza y me deje aplastar

E/------------------------------------------------------------------
B/------------------------------------------------------------------
G/------------------------------------------------------------------
D/---------------4---------------3---------------2---------------1--
A/--2h3p2p0h2p0--4--2h3p2p0h2p0--3--2h3p2p0h2p0--2--2h3p2p0h2p0--1--
D/---------------4---------------3---------------2---------------1--

No me digas,no me enfoques
No soporto tus sermones

E/------------------------------------------------------------
B/------------------------------------------------------------
G/------------------------------------------------------------
D/--------------4--------------4---------------------4--------
A/--2h3p2p0h2p0-4--2h3p2p0h2p0-4---------2h3p2p0h2p0-4--------
D/--------------4--------------444444444-------------4444444--

Siempre andas buscando en mi vereda
Si algo se cayo y no o no hice bien
Te jactas de ser el mas pulenta
Y te olvidas que no me conoces

E/------------------------------------------------------------------
B/------------------------------------------------------------------
G/------------------------------------------------------------------
D/---------------4---------------3---------------2---------------1--
A/--2h3p2p0h2p0--4--2h3p2p0h2p0--3--2h3p2p0h2p0--2--2h3p2p0h2p0--1--
D/---------------4---------------3---------------2---------------1--

No me digas,no me enfoques
No soporto tus sermones

E/---------------------------------------
B/-----------------------------------10--
G/-----------------------------------13--
D/--2h4----4h6----6h7----7h9------0------
A/--2h4----4h6----6h7----7h9------0------
D/--2h444444h666666h777777h99999--0------

E/---------------------------------------
B/---------------------------------------
G/-----------------------------------4---
D/--2h4----4h6----6h7----7h9------7--4---
A/--2h4----4h6----6h7----7h9------5--2---
D/--2h444444h666666h777777h99999---------

Ya no me digas que hacer
Ya no me digas que hacer
Ya no me digas que hacer
Porque nunca me vas a cambiar.

Pre Solo
E/------------------------------
B/------------------------------
G/------------------------------
D/---------------4-----------4--
A/--2h4p2p0h2p0--4--2h4p2p0--4--
D/---------------4-----------4--

Solo(No Lo Saque)

E/------------------------------------------------------------
B/------------------------------------------------------------
G/------------------------------------------------------------
D/--------------4--------------4---------------------4--------
A/--2h3p2p0h2p0-4--2h3p2p0h2p0-4---------2h3p2p0h2p0-4--------
D/--------------4--------------444444444-------------4444444--

Siempre andas buscando en mi vereda
Si algo se cayo y no o no hice bien

E/------------------------------------------------------------------
B/------------------------------------------------------------------
G/------------------------------------------------------------------
D/---------------4---------------3---------------2---------------1--
A/--2h3p2p0h2p0--4--2h3p2p0h2p0--3--2h3p2p0h2p0--2--2h3p2p0h2p0--1--
D/---------------4---------------3---------------2---------------1--

No me digas,no me enfoques
No soporto tus sermones

E/---------------------------------------
B/-----------------------------------10--
G/-----------------------------------13--
D/--2h4----4h6----6h7----7h9------0------
A/--2h4----4h6----6h7----7h9------0------
D/--2h444444h666666h777777h99999--0------

E/---------------------------------------
B/---------------------------------------
G/-----------------------------------4---
D/--2h4----4h6----6h7----7h9------7--4---
A/--2h4----4h6----6h7----7h9------5--2---
D/--2h444444h666666h777777h99999---------

Ya no me digas que hacer
Ya no me digas que hacer
Ya no me digas que hacer
Porque nunca me vas a cambiar.

Final
E/------------------------------------------------------------
B/------------------------------------------------------------
G/------------------------------------------------------------
D/--------------4--------------4---------------------4--------
A/--2h3p2p0h2p0-4--2h3p2p0h2p0-4---------2h3p2p0h2p0-4--------
D/--------------4--------------444444444-------------4444444--
Suggest correction
Give kudos to tab author, rate the tab!
1 2 3 4 5
comments
print report bad tab
guest
You may want to rate the tab now too:
select rating
Wanna post a correction for this tab? Suggest correction