Oops, an error
Loading. Please wait.

Una Pena En Godoy Cruz Tab

version 1
version 1

Whole song

31 views 1 this week
no commentswrite comment
1 2 3 4 5
3 more votes to show rating
add to favorites
launch autoscroll
font size
0
reset
how to read this tab
guitar tuner
×
Best way to learn
"Una Pena En Godoy Cruz"
Autoscroll
slow
fast
+/-
esc
set tempo
stop
Esta es mi versión, para hacer el tema sin tener q afinar la 6ta en Re

Intro: x5
   MIm DO#m DO FA MI RE
|----------------------|
|----------------------|
|----------------------|
|--2-2-2-2-2-2--3-2-0--|
|--2-2-4-4-3-3--3-2-0--|
|--0-0----------1-0----|

Intro x2
Yo te llevaré marcado en mi espalda
Para recordar que mi alma sangra


   DO              DO           DO#m FA#m
|--------7---------------7---------------|
|-----8-----8---------8-----8------------|
|--5---------------5------------6-6------|
|-------------------------------6-6-4-4--|
|-------------------------------4-4-4-4--|
|-----------------------------------2-2--|
  Como aceptarlo, como creerlo, aahhhhhh!


Intro x2
Quiero estar en paz pero mi llanto gana
Sólo por saber que no estarás mañana


DO              DO           DO#m FA#m
Como aceptarlo, como creerlo, aahhhhhh!


Intro
Tu imagen viva quedará en mi espalda


SI   LAm SI DO        FA#m
  Aunque ya no estés aquí


  MI RE SI LAm        DO
|---------------------------7-----|
|------------------------8-----8--|
|-9--7--4---2---------5-----------|
|-9--7--4---2---------------------|
|-7--5--2---0---------------------|
|---------------------------------|
  Vives siempre en mi pobre corazón
  Vive siempre tu inmenso corazón.
  Vives siempre en mi pobre corazón
  Vive siempre tu inmenso corazón, uooh


   MI  FA MI    FA MI    FA MI RE RE#
|------------------------------------|
|------------------------------------|
|--9-9-10/9-9-9-10/9-9-9-10/9-9-7-4--| x3
|--9-9-10/9-9-9-10/9-9-9-10/9-9-7-4--|
|--7-7--8/7-7-7--8/7-7-7--8/7-7-5-6--|
|------------------------------------|

   MI  FA MI    FA MI    FA MI RE DO#
|------------------------------------|
|------------------------------------|
|--9-9-10/9-9-9-10/9-9-9-10/9-9-7-6--|
|--9-9-10/9-9-9-10/9-9-9-10/9-9-7-6--|
|--7-7--8/7-7-7--8/7-7-7--8/7-7-5-4--|
|------------------------------------|

Solo:
   DO                     DO# FA#
|----------------------------------|
|----------------------------------|
|--5----------------------6-6------| x2
|--5----------------------6-6-4-4--|
|--3----------------------4-4-4-4--|
|-----------------------------2-2--|

  MI RE SI LAm        DO
|---------------------------7-----|
|------------------------8-----8--|
|-9--7--4---2---------5-----------| x2
|-9--7--4---2---------------------|
|-7--5--2---0---------------------|
|---------------------------------|


Intro
Porque yo te espero en la madrugada
Para emborrachar esta pena amarga

Como aceptarlo, como creerlo, aahhhhhh!

Vives siempre en mi pobre corazón
Vive siempre tu inmenso corazón.
Vives siempre en mi pobre corazón
Vive siempre tu inmenso corazón, uooh


Intro x4
Final: x8 (le mete Wah Wah)
   MIm DO#m DO FA MI RE MIm DO#m DO
|----------------------------------|
|----------------------------------|
|----------------------------------|
|--2-2-----------------------------|
|--2-2-4-4-3-3--/8-7-5-7/-4-4-3-3--|
|--0-0-----------------------------|

DO SI LAm MIm
|-----------|
|-----------|
|--5-4-2----|
|--5-4-2-2--|
|--3-2-0-2--|
|--------0--|


                 V8
Hermética  Horcas  Logos  Rata Blanca

Freyre, Cba.
Suggest correction
Give kudos to tab author, rate the tab!
1 2 3 4 5
comments
print report bad tab
guest
You may want to rate the tab now too:
select rating
Wanna post a correction for this tab? Suggest correction