Oops, an error
Loading. Please wait.

Una Pena En Godoy Cruz Tab

version 2
version 2

Whole song

44 views 1 this week
no commentswrite comment
1 2 3 4 5
3 more votes to show rating
add to favorites
launch autoscroll
font size
0
reset
how to read this tab
guitar tuner
×
Best way to learn
"Una Pena En Godoy Cruz"
Autoscroll
slow
fast
+/-
esc
set tempo
stop
O'CONNOR:
UNA PENA EN GOODY CRUZ - DOLORIZACIÓN

Por Nicolas Elias Melillo (nicolasem@

Intro/Riff 1:

e|-----------------------------------------------|
B|-----------------------------------------------|
G|-----------------------------------------------|
D|--------2--2--2--2-----------------2--2--2--2--|
A|--2--2--4--4--3--3--3--2--0--2--2--4--4--3--3--|
D|--2--2--------------3--2--0--2--2--------------|
   Yo te llevaré...

Riff *1*:(sólo para el final de la canción que cambia asi...3:26) x 6
e|--------------------------------------------------|---------------------|
B|--------------------------------------------------|      ---------------|
G|--------------------------------------------------|      ---------------|
D|--------2--2--2--2--------------------------------|  x 6 ---------------|
A|--2--2--4--4--3--3---2^3--2--0--2\----4--4--3--3--|      ---2--3--2--2--|
D|--2--2--------------------------------------------|---------2--3--2--2--|
							   ||3:53||
Riff 2:

e|-----------------|
B|-----------------|
G|--4--4-----------|
D|--5--5--6--------|
A|--3--3--4--5--5--|
D|-----------5--5--|

Riff 3:

e|------------------|
B|------------------|
G|------------------|
D|--4--0-^-4--5-----|
A|--2--0-^-2--3--4--|
D|---------------4--|
  Aunque...

Riff 4:

e|--------------------------------|
B|--------------------------------|
G|--4------------4----------------|
D|--2--7--4--2---5----------------|
A|-----5--2--0---3----------------|
D|--------------------------------|
   vive siempre...

Riff 5:(vá justo depués del 4º y junto al solo)

e|--------------------------------|
B|--------------------------------|
G|--------------------------------|
D|--(-9--9-)---7--8--9--(9--9-)---|
A|--(-7--7-)---5--6--7--(7--7-)---|
D|--------------------------------|
   (Repetir un par de veces...)

CANCION:

(Riff 1)
YO TE LLEVARE
MARCADO EN MI ESPALDA
PARA RECORDAR
QUE MI ALMA SANGRA

(Riff 2)
COMO ACEPTARLO
COMO CREERLO
AHH...

(Riff 1)
QUIERO ESTAR EN PAZ
PERO MI LLANTO GANA
SOLO POR SABER
QUE NO ESTARAS MAÑANA

(Riff 2)
COMO ACEPTARLO
COMO CREERLO
AHH...

(Riff 1)
TU IMAGEN VIVA
QUEDARA A MI ESPALDA

(Riff 3)
AUNQUE YA NO ESTES AQUI

(Riff 4)
VIVE SIEMPRE
EN MI POBRE CORAZON
VIVE SIEMPRE
TU INMENSO CORAZON

VIVE SIEMPRE
EN MI POBRE CORAZON
VIVE SIEMPRE
TU INMENSO CORAZON

UUOOHH...(Riff 5 y solo...)

(Riff 1)
PORQUE YO TE ESPERO
EN LA MADRUGADA
PARA EMBORRACHAR
ESTA PENA AMARGA

(Riff 2)
COMO ACEPTARLO
COMO CREERLO
AHH...

(Riff 4)
VIVE SIEMPRE
EN MI POBRE CORAZON
VIVE SIEMPRE
TU INMENSO CORAZON

VIVE SIEMPRE
EN MI POBRE CORAZON
VIVE SIEMPRE
TU INMENSO CORAZON

UUOOHH...(Riff *1*)
Suggest correction
Give kudos to tab author, rate the tab!
1 2 3 4 5
comments
print report bad tab
guest
You may want to rate the tab now too:
select rating
Wanna post a correction for this tab? Suggest correction