Oops, an error
Loading. Please wait.

Vida Perra Bass Tab

54 views 1 this week
no commentswrite comment
1 2 3 4 5
3 more votes to show rating
add to favorites
launch autoscroll
font size
0
reset
guitar tuner
×
Best way to learn
"Vida Perra"
Autoscroll
slow
fast
+/-
esc
set tempo
stop
La cuarta cuerda se afina en Re


INTRO:
G|------------------------------------------------|
D|------------------------------------------------|
A|---------------------------1--3--5--8--7--5-----|
D|--0--7-7-0-3--0--7-7-0-3------------------------|

G|------------------------------------------------|
D|------------------------------------------------|
A|---------------------------1--3--5--8--7--5--1--|
D|--0--7-7-0-3--0--7-7-0-3------------------------|


G|-----------------|
D|----------3------|  X4
A|--5-0-3^5--------|
D|-----------------|

Sobre la tierra ese angel cayo
lorrando de hambre se desmayo
que vida perraaa!

G|------------------------------------|
D|----------3-------------------------|
A|--5-0-3^5----1-1-1-1-1-1-1-1--------|
D|------------------------------0-0-0-|

Pido perdon porque yo como y vos no
Pido perdon por mi amibiion que vida perraaa, tanta inocenciaaa

G|-----------------------------------------------|
D|----------3------------------------------------|
A|--5-0-3^5----1-1-1-1-1-1-1-1--0-0-0-0-0-0-0-0--|
D|-----------------------------------------------|

La deuda es el pretextoooo

G|------------------------------------|
D|------------------------------------|
A|------------------------------------|
D|-0-3-5/6-5-0-7-7-7-7-7-7-0----------|

Para el dominio total de esta nacion

G|------------------------------------|
D|------------------------------------|
A|------------------------------------|
D|-0-3-5/6-5-0-7-7-7--3-5-7-----------|

Mientras la mole me aplasta, me aplastaaaaa

G|------------------------------------|
D|------------------------------------|
A|------------------------------------|
D|-0-3-5/6-5-0-5-5-5-5--3-3-3-3-------|

Vuelve a la intro x2

Los sueños son una fragil ilucion
y nadie quiere ver la razon que vida perra      IGUAL QUE LA PRIMERA
tan delicada como un fino cristal                       ESTROFA!!
tan olvidada como lo que no esta
tu vida enteraaa
tu vida perra

La dueda es el pretexo
para el dominio total de esta nacion             ESTRIBILLO
cuando la mole me aplasta, me aplasta

No se cuando lo vi no se cuando pasooo

G|------------------------------------------------|
D|------------------------------------------------|
A|---------------------------1--3--5--8--7--5-----|
D|--0--7-7-0-3--0--7-7-0-3------------------------|

tu mirada encontre masticndo dolor

G|------------------------------------------------|
D|------------------------------------------------|
A|---------------------------1--3--5--8--7--5-----|
D|--0--7-7-0-3--0--7-7-0-3------------------------|

 Done la viola va sin distorcion:

G|-----------------------|
D|-----------------------|
A|-0-----1-----0-----1---|
D|-----------------------|

G|------------------------------------------------------|
D|------------------------------------------------------|
A|-1--3--5-/-8--7--5--3----1/-12-12-12-12-12-12---------|
D|------------------------------------------------------|

Base del solo:

G|--------------------------------|
D|--------------------------------|
A|-3-3-3-3--6-6-6-6--8-8-8-8------|
D|--------------------------------|
                                        X2
G|--------------------------------|
D|--------------------------------|
A|-3-3-3-3--6-6-6-6--1-1-1-1------|
D|--------------------------------|

G|--------------------------------|
D|--------------------------------|
A|-5-5-5-5--8-8-8-8--10-10-10-10--|
D|--------------------------------|

G|--------------------------------|
D|--------------------------------|
A|-5-5-5-5--8-8-8-8--3-3-3-3------|
D|--------------------------------|


G|---------------10--------12-----|
D|------------10--------12--------|
A|-5-5-5-5--8--------10-----------|
D|--------------------------------|

G|--------------------------------|
D|--------------------------------|
A|-5-5-5-5--8-8-8-8--3-3-3-3------|
D|--------------------------------|

Pido perdon porque yo como y vos no
Pido perdon por mi ambicion
que vida perra
Tan delicada como un fino cristal
tan olvida como lo que no esta
tu vida entera
tu vida perra

La deuda es el pretexto
para el dominio total de esta nacion
mientras la moles me alpasta, me aplasta

No se cuando lo vi no se cuando paso
tu mirada encontre masticando dolor
No se cuando lo vi no se cuando paso
tu mirada encontre masticando dolor

FINAL:

G|----------------------------------------------|
D|----------------------------------------------|
A|----------------------------------------------|
D|-0-7-5-0-3--0-7-5-0-3--0-7-5-0-3--0-7-5-0-3---|


G|----------------------------------------------|
D|----------------------------------------------|
A|----------------------------------------------|
D|-0-7-5-0-3--0-7-5-0-3--0-7-5-0-3--0-7-5-0-3-0-|
Suggest correction
Give kudos to tab author, rate the tab!
1 2 3 4 5
comments
print report bad tab
guest
You may want to rate the tab now too:
select rating
Wanna post a correction for this tab? Suggest correction