Oops, an error
Loading. Please wait.

Vida Perra Tab

98 views 1 this week
no commentswrite comment
1 2 3 4 5
3 more votes to show rating
add to favorites
launch autoscroll
font size
0
reset
how to read this tab
guitar tuner
×
Best way to learn
"Vida Perra"
Autoscroll
slow
fast
+/-
esc
set tempo
stop
Por Nicolas Melillo (nicolasem@ 
    Nahuel Amaya (enetequi@

Afinar la Sexta en 'D', mucha distorsion y 
con un pedal groso porque si no suena pa' el orto.


Intro:

e|-------------------------------------|
B|-------------------------1---1-------|
G|-------------------------3---2-------| 
D|-------------------------3---2-------| 
A|--0--7-7-0-3--0--7-7-0-3-----0-------|
D|--0--7-7-0-3--0--7-7-0-3-------------|

Riff 1:

e|----------------|
B|----------------|
G|----------------| 
D|----------------|
A|--5-0-3-0-8-----|
D|----------------|

Riff 2:

e|----------------------------|
B|----------------------------|
G|----------------------------|
D|----------------------------|
A|----3-5-5/6/5---5--7--------|
D|--0-3-5-5/6/5-0-5--7--------|


Riff 3:

e|-------------------------------|
B|-------------------------------|
G|-------------------------------|
D|-------------------------------|
A|----3-5-5/6/5---5--7--3-5-7----|
D|--0-3-5-5/6/5-0-5--7--3-5-7----|

Riff 4:

e|---------------------------|
B|---------------------------|
G|---------------------------|
D|---------------------------|
A|----3-5-5/6/5---5-----3----|
D|--0-3-5-5/6/5-0-5---0-3----|

RIff 5 (Limpio):

e|--0--0-------0--0-------|
B|--6----6-----5----5-----|
G|--7------7---6------6---|
D|------------------------|
A|------------------------|
D|------------------------|

RIff 6 (Limpio):

e|---0-----0----------|
B|-----6-----6--------|
G|-------7-----7------| 
D|--------------------|
A|--------------------|
D|--------------------|

RIff 7 (Limpio):

e|---0-----0----------|
B|-----5-----5--------|
G|-------6-----6------| 
D|--------------------|
A|--------------------|
D|--------------------|

Riff 8:

e|------------------------------|
B|------------------------------|
G|------------------------------| 
D|------------------------------| 
A|--0--7-5-0-3--0--7-5-0-3------|
D|--0--7-5-0-3--0--7-5-0-3------|


CANCION:

'Intro x 2'

'Riff 1'
SOBRE LA TIERRA ESE ANGEL CAYO
'Riff 1'
LLORANDO DE HAMBRE SE DESMAYO
'B5'
QUE VIDA PERRA

'Riff 1'
PIDO PERDON PORQUE YO COMO Y VOS NO
'Riff 1'
PIDO PERDON POR MI AMBICION
'B5'
QUE VIDA PERRA
'A5'
TANTA INOCENCIA

'RIff 2'
LA VERDAD ES EL PRETEXTO
'Riff 3'
PARA EL DOMINIO TOTAL DE ESTA NACION 
'Riff 4'
MIENTRAS LA MOLE TE APLASTA
ME APLASTA

'Intro x 2'

'Riff 1'
LOS SUEÑOS SON UNA FRAGIL ILUSION
'Riff 1'
Y NADIE QUIERE VER LA RAZON
'B5'
QUE VIDA PERRA

'Riff 1'
TAN DELICADA COMO FINO CRISTAL
'Riff 1'
TAN OLVIDADA COMO LO QUE NO ESTA
'B5'
TU VIDA ENTERA
'A5'
TU VIDA PERRA

'RIff 2'
LA VERDAD ES EL PRETEXTO
'Riff 3'
PARA EL DOMINIO TOTAL DE ESTA NACION 
'Riff 4'
MIENTRAS LA MOLE TE APLASTA
ME APLASTA

'Intro/Riff 6'
NO SE CUANDO LO VI
NO SE CUANDO PASO

'Intro/Riff 6'
TU MIRADA ENCONTRE 
MASTICANDO DOLOR

'Intro/Riff 6'
NO SE CUANDO LO VI
NO SE CUANDO PASO

'Intro/Riff 6'
TU MIRADA ENCONTRE 
MASTICANDO DOLOR

'RIff 5' 

'Riff 6' Repite

'Riff 7' Repite

'Solo'

'Riff 1'
PIDO PERDON PORQUE YO COMO Y VOS NO
'Riff 1'
PIDO PERDON POR MI AMBICION
'B5'
QUE VIDA PERRA

'Riff 1'
TAN DELICADA COMO FINO CRISTAL
'Riff 1'
TAN OLVIDADA COMO LO QUE NO ESTA
'B5'
TU VIDA ENTERA
'A5'
TU VIDA PERRA

'RIff 2'
LA VERDAD ES EL PRETEXTO
'Riff 3'
PARA EL DOMINIO TOTAL DE ESTA NACION 
'Riff 4'
MIENTRAS LA MOLE TE APLASTA
ME APLASTA

'Intro/Riff 6'
NO SE CUANDO LO VI
NO SE CUANDO PASO

'Intro/Riff 6'
TU MIRADA ENCONTRE 
MASTICANDO DOLOR

'Intro/Riff 6'
NO SE CUANDO LO VI
NO SE CUANDO PASO

'Intro/Riff 6'
TU MIRADA ENCONTRE 
MASTICANDO DOLOR

Repite 'Riff 8' hasta el final.
Suggest correction
Give kudos to tab author, rate the tab!
1 2 3 4 5
comments
print report bad tab
guest
You may want to rate the tab now too:
select rating
Wanna post a correction for this tab? Suggest correction