Oops, an error
Loading. Please wait.

A Partir De Hoy Tab

by Octavia
19 views 1 this week
no commentswrite comment
1 2 3 4 5
3 more votes to show rating
add to favorites
launch autoscroll
font size
0
reset
how to read this tab
guitar tuner
×
Best way to learn
"A Partir De Hoy"
Autoscroll
slow
fast
+/-
esc
set tempo
stop
TRANSCRITO POR: Omar Miranda
17/02/2005

    E  Bm  A  G  D
e|--0--2---0--3--2--|
B|--0--3---2--0--3--|
G|--1--4---2--0--2--|
D|--2--4---2--0--0--|
A|--2--2---0--2-----|
E|--0---------3-----|

NOTACION:

Sin Acorde : S.A.

INTRO:

    E                               Bm      A
e|--------------------------------|------|----------------------------------|
B|-----12----10---9-----9---9---9-|---7--|----10---9---7-----7---7---7---5--|
G|--13----11----9-----9---9---9---|-7----|--9----9---6-----6---6---6---6----|
D|--------------------------------|------|----------------------------------|
A|--------------------------------|------|----------------------------------|
E|--------------------------------|------|----------------------------------|

    E                               Bm      A
e|--------------------------------|------|----------------------------------|
B|-----12----10---9-----9---9---9-|---7--|----10---9---10---9---10---9---9--|
G|--13----11----9-----9---9---9---|-7----|--9----9---9----9---9----9-----9--|
D|--------------------------------|------|----------------------------------|
A|--------------------------------|------|----------------------------------|
E|--------------------------------|------|----------------------------------|

      E                  Bm
Desperté por fin la luz apareció
                A
Abrí mi voz y estabas vos Abierta a mis deseos
    E                  Bm
Mírame soy el testigo de tu amor
                A
Soy el que te provoco Toda esta espera


    E                           Bm                          A
e|------------------------|------------------------------|--------------------------0--0--------------------------|
B|------------------------|---------0--------------------|-----0-2-----------------2----2-2-----------------------|
G|-----1------------------|-------4-4--------------------|----2--2----------------2------2------------------------|
D|----2-------------------|------4-----------------------|---2-------------------2-------------------2-2-2-2-2-2--|
A|---2--------------------|-----2------------------------|--0-------------------0--------------------0-0-0-0-0-0--|
E|--0---------------------|------------------------------|--------------------------------------------------------|
       Desde este momento    El mundo es de nosotros dos     Nuestras vidas se inician a partir de hoy

S.A.
A partir de hoy


A            E
Me llevas en vos
G             D
Te llevare en mí
A              E
Serás la intuición
G                 D
Que escriba mi historia
D
A partir de hoy

    E                               Bm      A
e|--------------------------------|------|----------------------------------|
B|-----12----10---9-----9---9---9-|---7--|----10---9---10---9---10---9---9--|
G|--13----11----9-----9---9---9---|-7----|--9----9---9----9---9----9-----9--|
D|--------------------------------|------|----------------------------------|
A|--------------------------------|------|----------------------------------|
E|--------------------------------|------|----------------------------------|

     E                   Bm
Cuídame serás la esencia de mi voz
                A
Tendré mis gestos,tu pasión también tu fortaleza
      E                  Bm
Quiéreme absorberé tu resplandor
                A
Encandilare al sol Brillaras a través mió


    E                           Bm                          A
e|------------------------|-------------0----------------|--------------------------------------------------------|
B|------------------------|---------0-----0---0----------|-----0-2-------0-2----------0-2--------0-2--------------|
G|-----1------------------|-------4-4-----4-4-4----------|----2--2------2--2---------2--2-------2--2--------------|
D|----2-------------------|------4----------4------------|---2---------2------------2----------2-----2-2-2-2-2-2--|
A|---2--------------------|-----2------------------------|--0---------0------------0----------0------0-0-0-0-0-0--|
E|--0---------------------|------------------------------|--------------------------------------------------------|
       Desde este momento    El mundo es de nosotros dos     Nuestras vidas se inician a partir de hoy

S.A.
A partir de hoy

A            E
Me llevas en vos
G             D
Te llevare en mí
A              E
Serás la intuición
G                 D
Que escriba mi historia
D
A partir de hoy

A            E
uhhhh...........
G             D
uhh..............
A              E
uhhhh..............
G                 D
uhhh...............

A            E
uhhhh........ahhhhh...
G             D     A
uhh.................uhh ahhh


ESPERO QUE SEA DE TU AGRADO

CUALQUIER DUDA, CONCEJO O COMENTARIO
POR FAVOR ESCRIBIR
A MI NUEVO CORREO: omctabs@
Suggest correction
Give kudos to tab author, rate the tab!
1 2 3 4 5
comments
print report bad tab
guest
You may want to rate the tab now too:
select rating
Wanna post a correction for this tab? Suggest correction