Oops, an error
Loading. Please wait.

Al Final Tab

by Octavia
38 views 1 this week
no commentswrite comment
1 2 3 4 5
3 more votes to show rating
add to favorites
launch autoscroll
font size
0
reset
how to read this tab
guitar tuner
×
Best way to learn
"Al Final"
Autoscroll
slow
fast
+/-
esc
set tempo
stop
TRANSCRITO POR: Omar Miranda
16/07/2003

ACORDES:

    E   C7   Aadd9  F#7add11  A5  C    F#  C#m   E5   C#m7 F7Madd11
e|--0----0-----0-------0----------0----2----4----------4------0------|
G|--0----0-----0-------0----------1----2----5----------5------0------|
B|--1----0-----6-------3------2---0----3----6----9-----4------2------|
D|--2----2-----7-------4------2---2----4----6----9-----6------3------|
A|--2----3-----7-------4------0---3----4----4----7-----4------3------|
E|--0----------5-------2---------------2----------------------1------|

INTRO:


    E        C7       Aadd9         F#7add11 
e|--------|-----7--|----------0--|----------0--|
G|-----9--|----5---|-------------|-------------|
B|----9---|---5----|------6------|------3------|
D|---9----|--5-----|----7---7----|----4---4----|
A|--7-----|--------|-------------|-------------|
E|--------|--------|--5----------|--2----------|

    E        C7       Aadd9         F#7add11 
e|--------|-----7--|----------0--|----------0--|
G|-----9--|----5---|-------------|-------------|
B|----9---|---5----|------6------|------3------|
D|---9----|--5-----|----7---7----|----4---4----|
A|--7-----|--------|-------------|-------------|
E|--------|--------|--5----------|--2----------|

E A5 E (LA nota A5 se rasguea un instante escucha la cancion para que tedes cuentaen esta parte)

E       C
y al final
       Aadd9
sólo quedas
         F#7add11            E
como una foto  uuooh uuuhh uuooh
     C           Aadd9
que cuelga de mi cabeza


F#   E  F# E  F#
y al final de todo
F#  E  F# E  F#
y a pesar de todo
C#m
tú

F#   E  F# E  F#
y al final de todo
F#  E  F# E  F#
y a pesar de todo
E5
tú

    C7                   Aadd9           F#7add11        E              C7             Aadd9     
e|----------0---------|----------0----|----------0----|---------0----|----------0---|----------0----|
G|-----------0--------|------------0--|------------0--|-----------0--|-----------0--|------------0--|
B|------0-------------|------6--------|------3--------|-----1--------|------0-------|------6--------|
D|----2---2-----------|----7---7------|----4---4------|---2---2------|----2---2-----|----7---7------|
A|--3-----------------|---------------|---------------|--------------|--3-----------|---------------|
E|--------------------|--5------------|--2------------|--0-----------|--------------|--5------------|
    sólo un clavo te sostiene            justo el que me está           partiendo en   dos

     
F#   E  F# E  F#
y al final de todo
F#  E  F# E  F#
y a pesar de todo
C#m
tú

F#   E  F# E  F#
y al final de todo
F#  E  F# E  F#
y a pesar de todo
C#m7
tú

F#   E  F# E   F#
y al final del tiempo
F#    E F# E F#
y en la otra orilla
E
tú

F#  E F# E  F#
estás en mi mente
F# E  F#  E  F#
pero inalcanzable
C#m
tú

F#   E  F# E  F#
y al final de todo
F#  E  F# E  F#
y por siempre
E5
sólo tú

       C7 
y al final
      Aadd9    F#7add11       F7Madd11      E
te diría.......uuuh...........uuuh..........uuuh

ESPERO QUE SEA DE TU AGRADO

CUALQUIR DUDA, CONCEJO O COMENTARIO 
POR FAVOR ESCRIBIR A: omarmc4@
Suggest correction
Give kudos to tab author, rate the tab!
1 2 3 4 5
comments
print report bad tab
guest
You may want to rate the tab now too:
select rating
Wanna post a correction for this tab? Suggest correction