Oops, an error
Loading. Please wait.

Altar Tab

by Octavia
11 views 1 this week
no commentswrite comment
1 2 3 4 5
3 more votes to show rating
add to favorites
launch autoscroll
font size
0
reset
how to read this tab
guitar tuner
×
Best way to learn
"Altar"
Autoscroll
slow
fast
+/-
esc
set tempo
stop
TRANSCRITO POR: Omar Miranda
04/03/2005

ACORDES:

   F7   G6 Aadd9  E5 F#5 G5 A5  F  G
e|--0---0----0------------------1--3--|
B|--1---3----0------------------1--3--|
G|--2---4----6------------------2--4--|
D|--3---5----7----2---4--3--7---3--5--|
A|--3---5----7----2---4--3--7---3--5--|
E|--0---0----5----0---2--2--5---1--3--|


INTRO:

               \
F7   G6  Aadd9  |>*2
               /

   F7     G6    F     G     A5    G5 A5 G5 A5 G5 A5  G5 A5 G5    A5    G5 A5 G5 A5 G5 A5  G5 A5
e|--0--|--0--|--1--|--3--|------------------------------------|----------------------------------|
B|--1--|--3--|--1--|--3--|------------------------------------|----------------------------------|
G|--2--|--4--|--2--|--4--|------------------------------------|----------------------------------|
D|--3--|--5--|--3--|--5--|------------------------------------|----------------------------------|
A|--3--|--5--|--3--|--5--|------------------------------------|----------------------------------|
E|--0--|--0--|--1--|--3--|--5-5---3--5--3--5--3--5---3--5--3--|--5-5---3--5--3--5--3--5---3--5---|


VERSO:

   E5           F#5
e|------------|----------------------------------------|
B|------------|----------------------------------------|
G|------------|----------------------------------------|
D|------------|----------------------------------------|
A|------------|----------------------------------------|
E|--0---0-0-0-|-2---------------2-2--2-2-2-2-2-2--2-2--|
           Nunca fuimos  tan sinceros

   E5           F#5
e|------------|----------------------------------------|
B|------------|----------------------------------------|
G|------------|----------------------------------------|
D|------------|----------------------------------------|
A|------------|----------------------------------------|
E|--0---0-0-0-|-2---------------2-2--2-2-2-2-2-2--2-2--|
           Y tan dañinos a la vez

   E5           F#5
e|------------|--------------------------------------------|
B|------------|--------------------------------------------|
G|------------|--------------------------------------------|
D|------------|--------------------------------------------|
A|------------|--------------------------------------------|
E|--0---0-0-0-|-2-------------------2-2--2-2-2-2-2-2--2-2--|
           Sacamos todo en nuestras bocas

   E5           F#5
e|------------|-------------------------------------------|
B|------------|-------------------------------------------|
G|------------|-------------------------------------------|
D|------------|-------------------------------------------|
A|------------|-------------------------------------------|
E|--0---0-0-0-|-2------------------2-2--2-2-2-2-2-2--2-2--|
           No imagine  que alguna vez

   E5           F#5
e|------------|---------------------------------------|
B|------------|---------------------------------------|
G|------------|---------------------------------------|
D|------------|---------------------------------------|
A|------------|---------------------------------------|
E|--0---0-0-0-|-2--------------2-2--2-2-2-2-2-2--2-2--|
           No llegaría este final                 Y ahora


INTERMEDIO:

    F      G               A5    G5 A5 G5 A5 G5 A5  G5 A5
e|--1---|--3------------|----------------------------------|
B|--1---|--3------------|----------------------------------|
G|--2---|--4------------|----------------------------------|
D|--3---|--5------------|----------------------------------|
A|--3---|--5------------|----------------------------------|
E|--1---|--3------------|--5-5---3--5--3--5--3--5---3--5---|
     Te quemare en nuestro altar

    F      G               A5    G5 A5 G5 A5 G5 A5  G5 A5
e|--1---|--3------------|----------------------------------|
B|--1---|--3------------|----------------------------------|
G|--2---|--4------------|----------------------------------|
D|--3---|--5------------|----------------------------------|
A|--3---|--5------------|----------------------------------|
E|--1---|--3------------|--5-5---3--5--3--5--3--5---3--5---|
     Todos los       recuerdos

   F7         G6          F      G       A5    G5 A5 G5 A5 G5 A5  G5 A5 G5    A5    G5 A5 G5 A5 G5 A5  G5 A5
e|--0---|-----0--------|--1----|-3----|------------------------------------|----------------------------------|
B|--1---|-----3--------|--1----|-3----|------------------------------------|----------------------------------|
G|--2---|-----4--------|--2----|-4----|------------------------------------|----------------------------------|
D|--3---|-----5--------|--3----|-5----|------------------------------------|----------------------------------|
A|--3---|-----5--------|--3----|-5----|------------------------------------|----------------------------------|
E|--0---|-----0--------|--1----|-3----|--5-5---3--5--3--5--3--5---3--5--3--|--5-5---3--5--3--5--3--5---3--5---|
    Dejare en las cenizas toda tempestad    El humo nos liberara

   F7         G6          F      G       A5    G5 A5 G5 A5 G5 A5  G5 A5 G5    A5    G5 A5 G5 A5 G5 A5  G5 A5
e|--0---|-----0--------|--1----|-3----|------------------------------------|----------------------------------|
B|--1---|-----3--------|--1----|-3----|------------------------------------|----------------------------------|
G|--2---|-----4--------|--2----|-4----|------------------------------------|----------------------------------|
D|--3---|-----5--------|--3----|-5----|------------------------------------|----------------------------------|
A|--3---|-----5--------|--3----|-5----|------------------------------------|----------------------------------|
E|--0---|-----0--------|--1----|-3----|--5-5---3--5--3--5--3--5---3--5--3--|--5-5---3--5--3--5--3--5---3--5---|
    Dejare en las cenizas toda tempestad


VERSO:

   E5           F#5
e|------------|----------------------------------------|
B|------------|----------------------------------------|
G|------------|----------------------------------------|
D|------------|----------------------------------------|
A|------------|----------------------------------------|
E|--0---0-0-0-|-2---------------2-2--2-2-2-2-2-2--2-2--|
           Siempre fuimos tan intensos

   E5           F#5
e|------------|-----------------------------------|
B|------------|-----------------------------------|
G|------------|-----------------------------------|
D|------------|-----------------------------------|
A|------------|-----------------------------------|
E|--0---0-0-0-|-2----------2-2--2-2-2-2-2-2--2-2--|
           Nos falto serenidad

   E5           F#5
e|------------|----------------------------------------|
B|------------|----------------------------------------|
G|------------|----------------------------------------|
D|------------|----------------------------------------|
A|------------|----------------------------------------|
E|--0---0-0-0-|-2---------------2-2--2-2-2-2-2-2--2-2--|
           Amamos con ardor y odio

   E5           F#5
e|------------|----------------------------------------|
B|------------|----------------------------------------|
G|------------|----------------------------------------|
D|------------|----------------------------------------|
A|------------|----------------------------------------|
E|--0---0-0-0-|-2---------------2-2--2-2-2-2-2-2--2-2--|
           Pero el final nada quedo

   E5           F#5
e|------------|-------------------------------|
B|------------|-------------------------------|
G|------------|-------------------------------|
D|------------|-------------------------------|
A|------------|-------------------------------|
E|--0---0-0-0-|-2------2-2--2-2-2-2-2-2--2-2--|
           De nosotros dos               Y ahora


    F      G               A5    G5 A5 G5 A5 G5 A5  G5 A5
e|--1---|--3------------|----------------------------------|
B|--1---|--3------------|----------------------------------|
G|--2---|--4------------|----------------------------------|
D|--3---|--5------------|----------------------------------|
A|--3---|--5------------|----------------------------------|
E|--1---|--3------------|--5-5---3--5--3--5--3--5---3--5---|
     Te quemare en nuestro altar

    F      G               A5    G5 A5 G5 A5 G5 A5  G5 A5
e|--1---|--3------------|----------------------------------|
B|--1---|--3------------|----------------------------------|
G|--2---|--4------------|----------------------------------|
D|--3---|--5------------|----------------------------------|
A|--3---|--5------------|----------------------------------|
E|--1---|--3------------|--5-5---3--5--3--5--3--5---3--5---|
     Todos los       recuerdos

   F7         G6          F      G       A5    G5 A5 G5 A5 G5 A5  G5 A5 G5    A5    G5 A5 G5 A5 G5 A5  G5 A5
e|--0---|-----0--------|--1----|-3----|------------------------------------|----------------------------------|
B|--1---|-----3--------|--1----|-3----|------------------------------------|----------------------------------|
G|--2---|-----4--------|--2----|-4----|------------------------------------|----------------------------------|
D|--3---|-----5--------|--3----|-5----|------------------------------------|----------------------------------|
A|--3---|-----5--------|--3----|-5----|------------------------------------|----------------------------------|
E|--0---|-----0--------|--1----|-3----|--5-5---3--5--3--5--3--5---3--5--3--|--5-5---3--5--3--5--3--5---3--5---|
    Dejare en las cenizas toda tempestad    El humo nos liberara


    F      G               A5    G5 A5 G5 A5 G5 A5  G5 A5
e|--1---|--3------------|----------------------------------|
B|--1---|--3------------|----------------------------------|
G|--2---|--4------------|----------------------------------|
D|--3---|--5------------|----------------------------------|
A|--3---|--5------------|----------------------------------|
E|--1---|--3------------|--5-5---3--5--3--5--3--5---3--5---|
     Te quemare en nuestro altar

    F      G               A5    G5 A5 G5 A5 G5 A5  G5 A5
e|--1---|--3------------|----------------------------------|
B|--1---|--3------------|----------------------------------|
G|--2---|--4------------|----------------------------------|
D|--3---|--5------------|----------------------------------|
A|--3---|--5------------|----------------------------------|
E|--1---|--3------------|--5-5---3--5--3--5--3--5---3--5---|
     Todos los       recuerdos


   F7         G6           F      G       A5    G5 A5 G5 A5 G5 A5  G5 A5
e|--0---|-----0--------|--1----|-3----|----------------------------------|
B|--1---|-----3--------|--1----|-3----|----------------------------------|
G|--2---|-----4--------|--2----|-4----|----------------------------------|
D|--3---|-----5--------|--3----|-5----|----------------------------------|
A|--3---|-----5--------|--3----|-5----|----------------------------------|
E|--0---|-----0--------|--1----|-3----|--5-5---3--5--3--5--3--5---3--5---|
    Dejare en las cenizas toda tempestad    El humo nos libera

   F7         G6          F      G       A5    G5 A5 G5 A5 G5 A5  G5 A5
e|--0---|-----0--------|--1----|-3----|----------------------------------|
B|--1---|-----3--------|--1----|-3----|----------------------------------|
G|--2---|-----4--------|--2----|-4----|----------------------------------|
D|--3---|-----5--------|--3----|-5----|----------------------------------|
A|--3---|-----5--------|--3----|-5----|----------------------------------|
E|--0---|-----0--------|--1----|-3----|--5-5---3--5--3--5--3--5---3--5---|
    Dejare en las cenizas toda tempestad    El humo nos libera


   F7         G6          F      G       A5    G5 A5 G5 A5 G5 A5  G5 A5 G5    A5    G5 A5 G5 A5 G5 A5  G5 A5 G5
e|--0---|-----0--------|--1----|-3----|------------------------------------|------------------------------------|
B|--1---|-----3--------|--1----|-3----|------------------------------------|------------------------------------|
G|--2---|-----4--------|--2----|-4----|------------------------------------|------------------------------------|
D|--3---|-----5--------|--3----|-5----|------------------------------------|------------------------------------|
A|--3---|-----5--------|--3----|-5----|------------------------------------|------------------------------------|
E|--0---|-----0--------|--1----|-3----|--5-5---3--5--3--5--3--5---3--5--3--|--5-5---3--5--3--5--3--5---3--5--3--|
    Dejare en las cenizas toda tempestad


    A5    G5 A5 G5 A5 G5 A5  G5 A5 G5    A5    G5 A5 G5 A5
e|------------------------------------|-----------------------------|
B|------------------------------------|-----------------------------|
G|------------------------------------|-----------------------------|
D|------------------------------------|-----------------------------|
A|------------------------------------|-----------------------------|
E|--5-5---3--5--3--5--3--5---3--5--3--|--5-5---3--5--3--5--5--5-----|
                                         Te quemare en nuestro altar


ESPERO QUE SEA DE TU AGRADO

CUALQUIER DUDA, CONCEJO O COMENTARIO
POR FAVOR ESCRIBIR
A MI NUEVO CORREO: omctabs@
Suggest correction
Give kudos to tab author, rate the tab!
1 2 3 4 5
comments
print report bad tab
guest
You may want to rate the tab now too:
select rating
Wanna post a correction for this tab? Suggest correction